busca

Online Songs

blink-182

Tom: D
[Intro]

A5
  Josie
B5         D5
  You're my source
   E5
Of most frustration
A5      B5
  Forget when i
D5           E5
  Don't meet expectations

E|--------------------------------------------------------------|
B|--------------------------------------------------------------|
G|--------------------------------------------------------------|
D|--------------------------------------------------------------|
A|---4------7---4-----5-----5---5-----4-----7---4-----5-----5---|
E|-5---5-5----5---5-5---5-5---5---5-5---5-5---5---5-0---0-0---0-|

E|--------------------------------------------------------------|
B|--------------------------------------------------------------|
G|--------------------------------------------------------------|
D|--------------------------------------------------------------|
A|---4-----7---4-----5-----5---5-----4-----7---4---2------------|
E|-5---5-5---5---5-5---5-5---5---5-5---5-5---5---0-0------------|

A5
Everything you
B5
Wished came true
D5
In the end we
E5
All blamed you
A5
Even though as
B5
They all know
D5
You weren't the only
E5
One, two, three, four

  A5             B5                D5            E5
E|---------------------------------------------------------------|
B|---------------------------------------------------------------|
G|---------------------------------------------------------------|
D|---------------------------------------------------------------|
A|---4-----7---4-----5-----5---5-----4-----7---4-----5-----5---5-|
E|-5---5-5---5---5-5---5-5---5---5-5---5-5---5---0-0---0-0---0---|

   A5             B5                D5            
E|----------------------------------------------------------------|
B|----------------------------------------------------------------|
G|----------------------------------------------------------------|
D|--------------------------------------------------7--7--7--7~~~~|
A|---4-----7---4-----5-----5---5-----4-----7---4----5--5--5--x----|
E|-5---5-5---5---5-5---5-5---5---5-5---5-5---5---0-0---------5~~~~|

[Primeira Parte]

A5
Why do you still
         D5
Keep it around
When you know it
          F#5
Brings me down
           E5   A5
I'm hating everything
      A5
And i know that
                D5
You dated other guys
                   F#5
But i gotta wonder why
               E5      A5
You'd leave it out for me

(shit)

  A5             B5                D5            E5
E|---------------------------------------------------------------|
B|---------------------------------------------------------------|
G|---------------------------------------------------------------|
D|---------------------------------------------------------------|
A|---4-----7---4-----5-----5---5-----4-----7---4-----5-----5---5-|
E|-5---5-5---5---5-5---5-5---5---5-5---5-5---5---0-0---0-0---0---|

   A5             B5                D5            
E|----------------------------------------------------------------|
B|----------------------------------------------------------------|
G|----------------------------------------------------------------|
D|--------------------------------------------------7--7--7--7~~~~|
A|---4-----7---4-----5-----5---5-----4-----7---4----5--5--5--x----|
E|-5---5-5---5---5-5---5-5---5---5-5---5-5---5---0-0---------5~~~~|

[Segunda Parte]

A5
Why am i still
         D5
Hanging around
When i know it
          F#5
Brings me down
           E5   A5
I'm hating everything
        A5
And you are getting
                  D5
Rides home in his car
And making out in
          F#5
His front yard
           E5   A5
I'm hating everything

[Refrão]

             D5
Please don't remind me
                A5
Put your past behind me
It shines so bright
   E5
It blinds me
I wish that
           D5
This would end
         D5
And i am not fine
Last night i
        A5
Saw you online
Your screen name
        E5
Used to be mine
Why can't we
        D5
Just pretend

[Terceira Parte]

A5                         D5
And if we can have another day
                         F#5
I've got so much left to say
             E5   A5
I'd tell you everything
         A5
And i'll laugh when i
                D5
Think about the past
                     F#5
When i see you after class
              E5   A5
You're hating everything

[Refrão]

             D5
Please don't remind me
                A5
Put your past behind me
It shines so bright
   E5
It blinds me
I wish that
           D5
This would end
         D5
And i am not fine
Last night i
        A5
Saw you online
Your screen name
        E5
Used to be mine
Why can't we
        D5
Just pretend

[Ponte]

And she said
F#5         D5
Na na na na na
         A5
Na na na na
         E5
Na na na na
(i just forgot
You were there)
F#5         D5
Na na na na na
         A5
Na na na na
         E5
Na na na na
(i just forgot
You were there)
F#5         D5
Na na na na na
         A5
Na na na na
         E5
Na na na na
(i just forgot
You were there)
F#5         D5
Na na na na na
         A5
Na na na na
         E5
Na na na na

[Refrão]

             D5
Please don't remind me
                A5
Put your past behind me
It shines so bright
   E5
It blinds me
I wish that
           D5
This would end
         D5
And i am not fine
Last night i
        A5
Saw you online
Your screen name
        E5
Used to be mine
Why can't we
        D5
Just pretend

[Final]

And she said
F#5         D5
Na na na na na

Clipes