Parking Lot

Blink-182

A
123
X02220
A5
12
X022XX
Bm
234
X24432
D
123
XX0232
D/F#
1234
2X0232
D5
134
X577XX
E5
12
022XXX
F#5
134
244XXX
G
123
320003
G5
134
355XXX
Tom: G
[Intro]
    
#1t1#    PM----|            PM----|            PM----|                             
#1t2#E|------------------| ------------------|-----------------------------------------------------------|
B|-----------3------| ------------------|-----------7-------7-------7----------5----5--5--5---------|
G|--2--2--2--2------| --2--2--2--2------|--2--2--2----7---7---7---7---7---7----7b9--9--9--9----x\---|
D|--0--0--0--0------| --0--0--0--0------|--0--0--0------7-------7-------7---------------------------|
A|------------------| -----------x------|-----------------------------------------------------------|
E|------------------| -----------2------|-----------------------------------------------------------|#/1t2##/1t1#

Verso 1:

#2t1#     D5                                                    D/F#
#2t2#E|------------------------------------------------------| ------------------------------------------|
B|------------------------------------------------------| ------------------------------------------|
G|------------------------------------------------------| ------------------------------------------|
D|--7--7--7----7--7--7----7--7--7----7--7--7----7-------| ------------------------------------------|
A|--5--5--5----5--5--5----5--5--5----5--5--5----5-------| -5--5-----5--5--5-----5--5--5----5--5--5--|
E|------------------------------------------------------| -2--2-----2--2--2-----2--2--2----2--2--2--|#/2t2##/2t1#

#3t1#     G5                                                    A5
#3t2#E|------------------------------------------------------| ------------------------------------------|
B|------------------------------------------------------| ------------------------------------------|
G|------------------------------------------------------| ------------------------------------------|
D|------------------------------------------------------| ------------------------------------------|
A|--5--5-------5--5--5----5--5--5----5--5--5----5-------| -7-x---7-x---7-x---7-x----x-7-7---x-7-7---|
E|--3--3-------3--3--3----3--3--3----3--3--3----3-------| -5-x---5-x---5-x---5-x----x-5-5---x-5-5---|#/3t2##/3t1#
    
#4t1#      F#5          A5            F#5          A5           F#5       A5         F#5       A5
#4t2#E|------------------------------------------------------| ------------------------------------------|
B|------------------------------------------------------| ------------------------------------------|
G|---11--11--11---14--14--14----11--11--11---14--14--14-| -11-11-11--14-14-14---11-11-11--14-14-14--|
D|---x---x---x----x---x---x-----x---x---x----x---x---x--| -x--x--x---x--x--x----x--x--x---x--x--x---|
A|---9---9---9----12--12--12----9---9---9----12--12--12-| -9--9--9---12-12-12---9--9--9---12-12-12--|
E|------------------------------------------------------| ------------------------------------------|#/4t2##/4t1#
#5t1#      G5                                                   A5
#5t2#E|------------------------------------------------------| ------------------------------------------|
B|------------------------------------------------------| ------------------------------------------|
G|---12--12--12--12--12--12--12--12--12--12--12--12--12-| -14-x---14-x---14-x---14-x---14-14-14-14--|
D|---x---x---x---x---x---x---x---x---x---x---x---x---x--| -x--x---x--x---x--x---x--x---x--x--x--x---|
A|---10--10--10--10--10--10--10--10--10--10--10--10--10-| -12-x---12-x---12-x---12-x---12-12-12-12--|
E|------------------------------------------------------| ------------------------------------------|#/5t2##/5t1#

D  
Remember the days we would drink on the train
       D/F#
On our way to the show, Chicago
G                                  A
Naked Raygun live at the Cabaret Metro
    F#5          A5     F#5             A5
Ten bucks to get into a fight you can't win
F#5       A5      F#5    A5
Boots and braces, yellow laces
G5                            A5
Oxblood traces of the night before
   
[Refrão]

#6t1#     G                   A                    D5                      F#5
#6t2#E|-----------------------------------------| -------------------------------------------------|
B|-----------------------------------------| -------------------------------------------------|
G|-----------------------------------------| -7--7--7--7--7--7--7--7--11-11-11-11-11-11-11-11-|
D|-----------------------------------------| -x--x--x--x--x--x--x--x--x--x--x--x--x--x--x--x--|
A|--2-x--2-x--2-x--2-x--4-x--4-x--4-x--4-x-| -5--5--5--5--5--5--5--5--9--9--9--9--9--9--9--9--|
E|--3-x--3-x--3-x--3-x--5-x--5-x--5-x--5-x-| -------------------------------------------------|#/6t2##/6t1#
   
#7t1#     G                   A                    D5                      F#5
#7t2#E|-----------------------------------------| -------------------------------------------------|
B|-----------------------------------------| -------------------------------------------------|
G|-----------------------------------------| -7--7--7--7--7--7--7--7----x--11-11----x--11-11--|
D|-----------------------------------------| -x--x--x--x--x--x--x--x----x--x--x-----x--x--x---|
A|--2-x--2-x--2-x--2-x--4-x--4-x--4-x--4-x-| -5--5--5--5--5--5--5--5----x--9--9-----x--9--9---|
E|--3-x--3-x--3-x--3-x--5-x--5-x--5-x--5-x-| -------------------------------------------------|#/7t2##/7t1#
      
#8t1#     G                   A                     D5                      F#5
#8t2#E|------------------------------------------| -------------------------------------------------|
B|------------------------------------------| -------------------------------------------------|
G|-4--4--4--4--4--4--4--6--6--6--6--6--6--6-| -7--7--7--7--7--7--7--7--11-11-11-11-11-11-11-11-|
D|-x--x--x--x--x--x--x--x--x--x--x--x--x--x-| -x--x--x--x--x--x--x--x--x--x--x--x--x--x--x--x--|
A|-2--2--2--2--2--2--2--4--4--4--4--4--4--4-| -5--5--5--5--5--5--5--5--9--9--9--9--9--9--9--9--|
E|-3--3--3--3--3--3--3--5--5--5--5--5--5--5-| -------------------------------------------------|#/8t2##/8t1#

#9t1#      G5                          A5
#9t2#E|--------------------------------------------------|
B|--------------------------------------------------|
G|---12-x---12-x---12-x---12-x----------------------|
D|---x--x---x--x---x--x---x--x---7---7\-------------|
A|---10-x---10-x---10-x---10-x---7---7\-------------|
E|-------------------------------5---5\-------------|#/9t2##/9t1#

G           A              D5     F#5
  We are forgotten young suburbia
G              A              D5     F#5
  Loose on the streets of California
G              A                     D5                    F#5 
Underneath fluorescent lights, we'll waste the best nights of our life
G5                     A5      
Fuck this place, let's put up a parking lot

[Pós-Refrão]

#10t1#     F#5                                               E5
#10t2#E|--------------------------------------------------| --------------------------------------------------|
B|--------------------------------------------------| --------------------------------------------------|
G|--11-11-11-11-11-11-11-11-11-11-11-11-11-11-11-11-| --9--9--9--9--9--9--9--9--9--9--9--9--9--9--9--9--|
D|--x--x--x--x--x--x--x--x--x--x--x--x--x--x--x--x--| --x--x--x--x--x--x--x--x--x--x--x--x--x--x--x--x--|
A|--9--9--9--9--9--9--9--9--9--9--9--9--9--9--9--9--| --7--7--7--7--7--7--7--7--7--7--7--7--7--7--7--7--|
E|--------------------------------------------------| --------------------------------------------------|#/10t2##/10t1#
    Na na-na na-na na-na,                              na na-na na-na na-na

#11t1#      G5                     A5
#11t2#E|--------------------------------------------------|
B|--------------------------------------------------|
G|--------------------------------------------------|
D|---5/---------------------7\----------------------|
A|---5/---------------------7\----------------------|
E|---3/---------------------5\----------------------|#/11t2##/11t1#
     Fuck this place, let's put up a parking lot

#12t1#    PM----|            PM----|            PM----|                             
#12t2#E|------------------| ------------------|---------------------------------------------------------------|
B|-----------3------| ------------------|-----------7-------7-------7----------5----5--5--5-------------|
G|--2--2--2--2------| --2--2--2--2------|--2--2--2----7---7---7---7---7---7----7b9--9--9--9----x\-------|
D|--0--0--0--0------| --0--0--0--0------|--0--0--0------7-------7-------7-------------------------------|
A|------------------| -----------x------|---------------------------------------------------------------|
E|------------------| -----------2------|---------------------------------------------------------------|#/12t2##/12t1#

[Segunda Parte]

#13t1#         D5                                              D/F#
#13t2#E|--------------------------------------------------| --------------------------------------------------|
B|--------------------------------------------------| --------------------------------------------------|
G|--------------------------------------------------| --------------------------------------------------|
D|------x--x--7----x--x--7----x--x--7----x--x--7----| --------------------------------------------------|
A|------x--x--5----x--x--5----x--x--5----x--x--5----| --x--x--5-----x--x--5-----x--x--5----x--x--5------|
E|--------------------------------------------------| --x--x--2-----x--x--2-----x--x--2----x--x--2------|#/13t2##/13t1#

#14t1#     G5                                                 A5
#14t2#E|--------------------------------------------------| --------------------------------------------------|
B|--------------------------------------------------| --------------------------------------------------|
G|--------------------------------------------------| --------------------------------------------------|
D|--------------------------------------------------| --------------------------------------------------|
A|--5--5--5--5--5--5--5--5--5--5--5--5--5--5--5--5--| --7--7--7--7--7--7--7--7--7--7--7--7--7--7--7--7--|
E|--3--3--3--3--3--3--3--3--3--3--3--3--3--3--3--3--| --5--5--5--5--5--5--5--5--5--5--5--5--5--5--5--5--|#/14t2##/14t1#

#15t1#      F#5          A5            F#5          A5           F#5       A5         F#5       A5
#15t2#E|------------------------------------------------------| ------------------------------------------|
B|------------------------------------------------------| ------------------------------------------|
G|---x---x---11---x---x---14----x---x---11---x---x---14-| -x--x--11--x--x--14---x--x--11--x--x--14--|
D|---x---x---x----x---x---x-----x---x---x----x---x---x--| -x--x--x---x--x--x----x--x--x---x--x--x---|
A|---x---x---9----x---x---12----x---x---9----x---x---12-| -x--x--9---x--x--12---x--x--9---x--x--12--|
E|------------------------------------------------------| ------------------------------------------|#/15t2##/15t1#

#16t1#      G5                                                   A5
#16t2#E|------------------------------------------------------| ------------------------------------------|
B|------------------------------------------------------| ------------------------------------------|
G|---12--12--12--12--12--12--12--12--12--12--12--12--12-| ------------------------------------------|
D|---x---x---x---x---x---x---x---x---x---x---x---x---x--| -7--7--7--7--7--7--7--7--7--7--7--7--7--7-|
A|---10--10--10--10--10--10--10--10--10--10--10--10--10-| -7--7--7--7--7--7--7--7--7--7--7--7--7--7-|
E|------------------------------------------------------| -5--5--5--5--5--5--5--5--5--5--5--5--5--5-|#/16t2##/16t1#

D
I can't wait 'til I'm off of work
     D/F#
I'll meet my friends at the Target curb
  G                                    A
I rolled my ankle, Matt just broke his wrist (whoo-ooh-ooh)
  F#5                  A5        F#5    A5
I climbed through your window at three am
   F#5             A5             F#5     A5
We listened to The Smiths and The Violent Femmes
      G5                                 A5
Yeah, we both sang, "Why can't I get one kiss?" (whoa-oh-oh-oh)

[Refrão]

#17t1#     G                   A                    D5                      F#5
#17t2#E|-----------------------------------------| -------------------------------------------------|
B|-----------------------------------------| -------------------------------------------------|
G|-----------------------------------------| -7--7--7--7--7--7--7--7--11-11-11-11-11-11-11-11-|
D|-----------------------------------------| -x--x--x--x--x--x--x--x--x--x--x--x--x--x--x--x--|
A|--2-x--2-x--2-x--2-x--4-x--4-x--4-x--4-x-| -5--5--5--5--5--5--5--5--9--9--9--9--9--9--9--9--|
E|--3-x--3-x--3-x--3-x--5-x--5-x--5-x--5-x-| -------------------------------------------------|#/17t2##/17t1#

#18t1#     G                   A                    D5                      F#5
#18t2#E|-----------------------------------------| -------------------------------------------------|
B|-----------------------------------------| -------------------------------------------------|
G|-----------------------------------------| -7--7--7--7--7--7--7--7----x--11-11----x--11-11--|
D|-----------------------------------------| -x--x--x--x--x--x--x--x----x--x--x-----x--x--x---|
A|--2-x--2-x--2-x--2-x--4-x--4-x--4-x--4-x-| -5--5--5--5--5--5--5--5----x--9--9-----x--9--9---|
E|--3-x--3-x--3-x--3-x--5-x--5-x--5-x--5-x-| -------------------------------------------------|#/18t2##/18t1#

#19t1#     G                   A                     D5                      F#5
#19t2#E|------------------------------------------| -------------------------------------------------|
B|------------------------------------------| -------------------------------------------------|
G|-4--4--4--4--4--4--4--6--6--6--6--6--6--6-| -7--7--7--7--7--7--7--7--11-11-11-11-11-11-11-11-|
D|-x--x--x--x--x--x--x--x--x--x--x--x--x--x-| -x--x--x--x--x--x--x--x--x--x--x--x--x--x--x--x--|
A|-2--2--2--2--2--2--2--4--4--4--4--4--4--4-| -5--5--5--5--5--5--5--5--9--9--9--9--9--9--9--9--|
E|-3--3--3--3--3--3--3--5--5--5--5--5--5--5-| -------------------------------------------------|#/19t2##/19t1#
#20t1#      G5                          A5               D5           A5
#20t2#E|------------------------------------------------------------------------------|
B|------------------------------------------------------------------------------|
G|---12-x---12-x---12-x---12-x--------------------7---7---7---------------------|
D|---x--x---x--x---x--x---x--x---7---7\-----------7---7---7----7-7-7-7-7-7-7-7--|
A|---10-x---10-x---10-x---10-x---7---7\-----------5---5---5----7-7-7-7-7-7-7-7--|
E|-------------------------------5---5\------------------------5-5-5-5-5-5-5-5--|#/20t2##/20t1#

G           A              D5     F#5
  We are forgotten young suburbia
G              A              D5     F#5
  Loose on the streets of California
G              A                     D5                    F#5 
Underneath fluorescent lights, we'll waste the best nights of our life
G5                     A5      
Fuck this place, let's put up a parking lot
     

Ponte:

#21t1#      F#5                   E5             F#5                  D5
#21t2#E|------------------------------------| -----------------------------------------|
B|------------------------------------| -----------------------------------------|
G|---11----11----11--------9--9--9----| ---11----11----11-------7--7--7----------|
D|---x-----x-----x---------x--x--x----| ---x-----x-----x--------x--x--x----------|
A|---9-----9-----9---------7--7--7----| ---9-----9-----9--------5--5--5----------|
E|------------------------------------| -----------------------------------------|#/21t2##/21t1#

#22t1#      F#5                   G5             F#5                  E5
#22t2#E|------------------------------------| -----------------------------------------|
B|------------------------------------| -----------------------------------------|
G|---11----11----11--------12-12-12---| ---11----11----11-------9--9--9----------|
D|---x-----x-----x---------x--x--x----| ---x-----x-----x--------x--x--x----------|
A|---9-----9-----9---------10-10-10---| ---9-----9-----9--------7--7--7----------|
E|------------------------------------| -----------------------------------------|#/22t2##/22t1#

#23t1#      F#5                   E5             F#5                  D5
#23t2#E|------------------------------------| -----------------------------------------|
B|------------------------------------| -----------------------------------------|
G|---11----11----11--------9--9--9----| ---11----11----11-------7--7--7----------|
D|---x-----x-----x---------x--x--x----| ---x-----x-----x--------x--x--x----------|
A|---9-----9-----9---------7--7--7----| ---9-----9-----9--------5--5--5----------|
E|------------------------------------| -----------------------------------------|#/23t2##/23t1#

#24t1#      F#5                   G5             F#5                  E5
#24t2#E|------------------------------------| -----------------------------------------|
B|------------------------------------| -----------------------------------------|
G|---11----11----11--------12-12-12---| ---11----11----11-------9--9--9----------|
D|---x-----x-----x---------x--x--x----| ---x-----x-----x--------x--x--x----------|
A|---9-----9-----9---------10-10-10---| ---9-----9-----9--------7--7--7----------|
E|------------------------------------| -----------------------------------------|#/24t2##/24t1#

D5  A5

F#5        E5        
    We are the broken
F#5        D5
    No end in sight
F#5           G5        F#5               E5   
    We're the forgotten soldiers you left behind
F#5            E5
    There's no use trying
F#5         D5  
    We lost the war
F#5              G5       F#5                E5
    Now the dead and dying, are back to even the score


Refrão:

#25t1#     G                    A                   Bm                      F#5
#25t2#E|-----------------------------------------| -------------------------------------------------|
B|-----------------------------------------| -------------------------------------------------|
G|-----------------------------------------| -7--7--7--7--7--7--7-----------------------------|
D|--5--5--5--5--5--5--5--7--7--7--7--7--7--| -7--7--7--7--7--7--7-----4--4--4--4--4--4--4--4--|
A|--5--5--5--5--5--5--5--7--7--7--7--7--7--| -------------------------4--4--4--4--4--4--4--4--|
E|--3--3--3--3--3--3--3--5--5--5--5--5--5--| -7--7--7--7--7--7--7-----2--2--2--2--2--2--2--2--|#/25t2##/25t1#
      
#26t1#     G                    A                   D5                      F#5
#26t2#E|-----------------------------------------| -------------------------------------------------|
B|-----------------------------------------| -------------------------------------------------|
G|-----------------------------------------| -7--7--7--7--7--7--7--7----x--11-11----x--11-11--|
D|--5--5--5--5--5--5--5--7--7--7--7--7--7--| -x--x--x--x--x--x--x--x----x--x--x-----x--x--x---|
A|--5--5--5--5--5--5--5--7--7--7--7--7--7--| -5--5--5--5--5--5--5--5----x--9--9-----x--9--9---|
E|--3--3--3--3--3--3--3--5--5--5--5--5--5--| -------------------------------------------------|#/26t2##/26t1#
         
#27t1#     G                   A                     D5                      F#5
#27t2#E|------------------------------------------| -------------------------------------------------|
B|------------------------------------------| -------------------------------------------------|
G|-4--4--4--4--4--4--4--6--6--6--6--6--6--6-| -7--7--7--7--7--7--7--7--11-11-11-11-11-11-11-11-|
D|-x--x--x--x--x--x--x--x--x--x--x--x--x--x-| -x--x--x--x--x--x--x--x--x--x--x--x--x--x--x--x--|
A|-2--2--2--2--2--2--2--4--4--4--4--4--4--4-| -5--5--5--5--5--5--5--5--9--9--9--9--9--9--9--9--|
E|-3--3--3--3--3--3--3--5--5--5--5--5--5--5-| -------------------------------------------------|#/27t2##/27t1#
#28t1#      G5                          A5
#28t2#E|--------------------------------------------------|
B|--------------------------------------------------|
G|---12-x---12-x---12-x---12-x----------------------|
D|---x--x---x--x---x--x---x--x---7---7\-------------|
A|---10-x---10-x---10-x---10-x---7---7\-------------|
E|-------------------------------5---5\-------------|#/28t2##/28t1#

G           A              Bm     F#5
  We are forgotten young suburbia
G              A              D5     F#5
  Loose on the streets of California
G              A                     D5                    F#5 
Underneath fluorescent lights, we'll waste the best nights of our life
G5                     A5      
Fuck this place, let's put up a parking lot


Pós-refrão:

#29t1#     F#5                                               E5
#29t2#E|--------------------------------------------------| --------------------------------------------------|
B|--------------------------------------------------| --------------------------------------------------|
G|--11-11-11-11-11-11-11-11-11-11-11-11-11-11-11-11-| --9--9--9--9--9--9--9--9--9--9--9--9--9--9--9--9--|
D|--x--x--x--x--x--x--x--x--x--x--x--x--x--x--x--x--| --x--x--x--x--x--x--x--x--x--x--x--x--x--x--x--x--|
A|--9--9--9--9--9--9--9--9--9--9--9--9--9--9--9--9--| --7--7--7--7--7--7--7--7--7--7--7--7--7--7--7--7--|
E|--------------------------------------------------| --------------------------------------------------|#/29t2##/29t1#
    Na na-na na-na na-na,                              na na-na na-na na-na

#30t1#      G5                     A5               D5
#30t2#E|--------------------------------------------------|
B|--------------------------------------------------|
G|-------------------------------------------7------|
D|---5/---------------------7\---------------7------|
A|---5/---------------------7\---------------5------|
E|---3/---------------------5\----------------------|#/30t2##/30t1#
     Fuck this place, let's put up a parking lot
Composição: Mark Hoppus / Travis Barker / Matt SkibaColaboração e revisão: Renan Luiz