busca

Parking Lot

blink-182

Tom: D
Introdução:
    
    PM----|            PM----|            PM----|                             
E|------------------|------------------|-----------------------------------------------------------|
B|-----------3------|------------------|-----------7-------7-------7----------5----5--5--5---------|
G|--2--2--2--2------|--2--2--2--2------|--2--2--2----7---7---7---7---7---7----7b9--9--9--9----x\---|
D|--0--0--0--0------|--0--0--0--0------|--0--0--0------7-------7-------7---------------------------|
A|------------------|-----------x------|-----------------------------------------------------------|
E|------------------|-----------2------|-----------------------------------------------------------|

Verso 1:

     D5                                                    D/F#
E|------------------------------------------------------|------------------------------------------|
B|------------------------------------------------------|------------------------------------------|
G|------------------------------------------------------|------------------------------------------|
D|--7--7--7----7--7--7----7--7--7----7--7--7----7-------|------------------------------------------|
A|--5--5--5----5--5--5----5--5--5----5--5--5----5-------|-5--5-----5--5--5-----5--5--5----5--5--5--|
E|------------------------------------------------------|-2--2-----2--2--2-----2--2--2----2--2--2--|
    Remember the days we would drink on the train on our  way to   the show,      Chicago

     G5                                                    A5
E|------------------------------------------------------|------------------------------------------|
B|------------------------------------------------------|------------------------------------------|
G|------------------------------------------------------|------------------------------------------|
D|------------------------------------------------------|------------------------------------------|
A|--5--5-------5--5--5----5--5--5----5--5--5----5-------|-7-x---7-x---7-x---7-x----x-7-7---x-7-7---|
E|--3--3-------3--3--3----3--3--3----3--3--3----3-------|-5-x---5-x---5-x---5-x----x-5-5---x-5-5---|
    Naked      Raygun live at the    Cabaret    Me--------tro

      F#5          A5            F#5          A5           F#5       A5         F#5       A5
E|------------------------------------------------------|------------------------------------------|
B|------------------------------------------------------|------------------------------------------|
G|---11--11--11---14--14--14----11--11--11---14--14--14-|-11-11-11--14-14-14---11-11-11--14-14-14--|
D|---x---x---x----x---x---x-----x---x---x----x---x---x--|-x--x--x---x--x--x----x--x--x---x--x--x---|
A|---9---9---9----12--12--12----9---9---9----12--12--12-|-9--9--9---12-12-12---9--9--9---12-12-12--|
E|------------------------------------------------------|------------------------------------------|
Ten bucks to get  into        a fight you can't win,      boots and braces,    yellow    laces

      G5                                                   A5
E|------------------------------------------------------|------------------------------------------|
B|------------------------------------------------------|------------------------------------------|
G|---12--12--12--12--12--12--12--12--12--12--12--12--12-|-14-x---14-x---14-x---14-x---14-14-14-14--|
D|---x---x---x---x---x---x---x---x---x---x---x---x---x--|-x--x---x--x---x--x---x--x---x--x--x--x---|
A|---10--10--10--10--10--10--10--10--10--10--10--10--10-|-12-x---12-x---12-x---12-x---12-12-12-12--|
E|------------------------------------------------------|------------------------------------------|
     Oxblood     traces      of      the     night   be---fore

Refrão:

     G                   A                    D5                      F#5
E|-----------------------------------------|-------------------------------------------------|
B|-----------------------------------------|-------------------------------------------------|
G|-----------------------------------------|-7--7--7--7--7--7--7--7--11-11-11-11-11-11-11-11-|
D|-----------------------------------------|-x--x--x--x--x--x--x--x--x--x--x--x--x--x--x--x--|
A|--2-x--2-x--2-x--2-x--4-x--4-x--4-x--4-x-|-5--5--5--5--5--5--5--5--9--9--9--9--9--9--9--9--|
E|--3-x--3-x--3-x--3-x--5-x--5-x--5-x--5-x-|-------------------------------------------------|
         We   are  for--got--ten  young su---burbia

     G                   A                    D5                      F#5
E|-----------------------------------------|-------------------------------------------------|
B|-----------------------------------------|-------------------------------------------------|
G|-----------------------------------------|-7--7--7--7--7--7--7--7----x--11-11----x--11-11--|
D|-----------------------------------------|-x--x--x--x--x--x--x--x----x--x--x-----x--x--x---|
A|--2-x--2-x--2-x--2-x--4-x--4-x--4-x--4-x-|-5--5--5--5--5--5--5--5----x--9--9-----x--9--9---|
E|--3-x--3-x--3-x--3-x--5-x--5-x--5-x--5-x-|-------------------------------------------------|
         Loose on  the  streets of Ca--li----fornia

     G                   A                     D5                      F#5
E|------------------------------------------|-------------------------------------------------|
B|------------------------------------------|-------------------------------------------------|
G|-4--4--4--4--4--4--4--6--6--6--6--6--6--6-|-7--7--7--7--7--7--7--7--11-11-11-11-11-11-11-11-|
D|-x--x--x--x--x--x--x--x--x--x--x--x--x--x-|-x--x--x--x--x--x--x--x--x--x--x--x--x--x--x--x--|
A|-2--2--2--2--2--2--2--4--4--4--4--4--4--4-|-5--5--5--5--5--5--5--5--9--9--9--9--9--9--9--9--|
E|-3--3--3--3--3--3--3--5--5--5--5--5--5--5-|-------------------------------------------------|
   Under----neath   fluorescent lights, we'll waste the best nights   of our life

      G5                          A5
E|--------------------------------------------------|
B|--------------------------------------------------|
G|---12-x---12-x---12-x---12-x----------------------|
D|---x--x---x--x---x--x---x--x---7---7\-------------|
A|---10-x---10-x---10-x---10-x---7---7\-------------|
E|-------------------------------5---5\-------------|
     Fuck  this    place, let's  put up a parking lot

Pós-Refrão:

     F#5                                               E5
E|--------------------------------------------------|--------------------------------------------------|
B|--------------------------------------------------|--------------------------------------------------|
G|--11-11-11-11-11-11-11-11-11-11-11-11-11-11-11-11-|--9--9--9--9--9--9--9--9--9--9--9--9--9--9--9--9--|
D|--x--x--x--x--x--x--x--x--x--x--x--x--x--x--x--x--|--x--x--x--x--x--x--x--x--x--x--x--x--x--x--x--x--|
A|--9--9--9--9--9--9--9--9--9--9--9--9--9--9--9--9--|--7--7--7--7--7--7--7--7--7--7--7--7--7--7--7--7--|
E|--------------------------------------------------|--------------------------------------------------|
    Na na-na na-na na-na,                              na na-na na-na na-na

      G5                     A5
E|--------------------------------------------------|
B|--------------------------------------------------|
G|--------------------------------------------------|
D|---5/---------------------7\----------------------|
A|---5/---------------------7\----------------------|
E|---3/---------------------5\----------------------|
     Fuck this place, let's put up a parking lot

    PM----|            PM----|            PM----|                             
E|------------------|------------------|---------------------------------------------------------------|
B|-----------3------|------------------|-----------7-------7-------7----------5----5--5--5-------------|
G|--2--2--2--2------|--2--2--2--2------|--2--2--2----7---7---7---7---7---7----7b9--9--9--9----x\-------|
D|--0--0--0--0------|--0--0--0--0------|--0--0--0------7-------7-------7-------------------------------|
A|------------------|-----------x------|---------------------------------------------------------------|
E|------------------|-----------2------|---------------------------------------------------------------|

Verso 2:

         D5                                              D/F#
E|--------------------------------------------------|--------------------------------------------------|
B|--------------------------------------------------|--------------------------------------------------|
G|--------------------------------------------------|--------------------------------------------------|
D|------x--x--7----x--x--7----x--x--7----x--x--7----|--------------------------------------------------|
A|------x--x--5----x--x--5----x--x--5----x--x--5----|--x--x--5-----x--x--5-----x--x--5----x--x--5------|
E|--------------------------------------------------|--x--x--2-----x--x--2-----x--x--2----x--x--2------|
            I can't wait 'til I'm off of work, I'll     meet my friends  at the   Target curb

     G5                                                 A5
E|--------------------------------------------------|--------------------------------------------------|
B|--------------------------------------------------|--------------------------------------------------|
G|--------------------------------------------------|--------------------------------------------------|
D|--------------------------------------------------|--------------------------------------------------|
A|--5--5--5--5--5--5--5--5--5--5--5--5--5--5--5--5--|--7--7--7--7--7--7--7--7--7--7--7--7--7--7--7--7--|
E|--3--3--3--3--3--3--3--3--3--3--3--3--3--3--3--3--|--5--5--5--5--5--5--5--5--5--5--5--5--5--5--5--5--|
  I rolled my   ankle,   Matt  just  broke    his      wrist (whoo-ooh-ooh)

      F#5          A5            F#5          A5           F#5       A5         F#5       A5
E|------------------------------------------------------|------------------------------------------|
B|------------------------------------------------------|------------------------------------------|
G|---x---x---11---x---x---14----x---x---11---x---x---14-|-x--x--11--x--x--14---x--x--11--x--x--14--|
D|---x---x---x----x---x---x-----x---x---x----x---x---x--|-x--x--x---x--x--x----x--x--x---x--x--x---|
A|---x---x---9----x---x---12----x---x---9----x---x---12-|-x--x--9---x--x--12---x--x--9---x--x--12--|
E|------------------------------------------------------|------------------------------------------|
   I climbed through your window at three am,          we listened to The Smiths and The Violent Femmes

      G5                                                   A5
E|------------------------------------------------------|------------------------------------------|
B|------------------------------------------------------|------------------------------------------|
G|---12--12--12--12--12--12--12--12--12--12--12--12--12-|------------------------------------------|
D|---x---x---x---x---x---x---x---x---x---x---x---x---x--|-7--7--7--7--7--7--7--7--7--7--7--7--7--7-|
A|---10--10--10--10--10--10--10--10--10--10--10--10--10-|-7--7--7--7--7--7--7--7--7--7--7--7--7--7-|
E|------------------------------------------------------|-5--5--5--5--5--5--5--5--5--5--5--5--5--5-|
Yeah, we both    sang,  "Why     can't   I   get  one     kiss?" (whoa-oh-oh-oh)

Refrão:

     G                   A                    D5                      F#5
E|-----------------------------------------|-------------------------------------------------|
B|-----------------------------------------|-------------------------------------------------|
G|-----------------------------------------|-7--7--7--7--7--7--7--7--11-11-11-11-11-11-11-11-|
D|-----------------------------------------|-x--x--x--x--x--x--x--x--x--x--x--x--x--x--x--x--|
A|--2-x--2-x--2-x--2-x--4-x--4-x--4-x--4-x-|-5--5--5--5--5--5--5--5--9--9--9--9--9--9--9--9--|
E|--3-x--3-x--3-x--3-x--5-x--5-x--5-x--5-x-|-------------------------------------------------|
         We   are  for--got--ten  young su---burbia

     G                   A                    D5                      F#5
E|-----------------------------------------|-------------------------------------------------|
B|-----------------------------------------|-------------------------------------------------|
G|-----------------------------------------|-7--7--7--7--7--7--7--7----x--11-11----x--11-11--|
D|-----------------------------------------|-x--x--x--x--x--x--x--x----x--x--x-----x--x--x---|
A|--2-x--2-x--2-x--2-x--4-x--4-x--4-x--4-x-|-5--5--5--5--5--5--5--5----x--9--9-----x--9--9---|
E|--3-x--3-x--3-x--3-x--5-x--5-x--5-x--5-x-|-------------------------------------------------|
         Loose on  the  streets of Ca--li----fornia

     G                   A                     D5                      F#5
E|------------------------------------------|-------------------------------------------------|
B|------------------------------------------|-------------------------------------------------|
G|-4--4--4--4--4--4--4--6--6--6--6--6--6--6-|-7--7--7--7--7--7--7--7--11-11-11-11-11-11-11-11-|
D|-x--x--x--x--x--x--x--x--x--x--x--x--x--x-|-x--x--x--x--x--x--x--x--x--x--x--x--x--x--x--x--|
A|-2--2--2--2--2--2--2--4--4--4--4--4--4--4-|-5--5--5--5--5--5--5--5--9--9--9--9--9--9--9--9--|
E|-3--3--3--3--3--3--3--5--5--5--5--5--5--5-|-------------------------------------------------|
   Underneath       fluorescent lights, we'll waste the best nights   of our life

      G5                          A5               D5           A5
E|------------------------------------------------------------------------------| 
B|------------------------------------------------------------------------------|
G|---12-x---12-x---12-x---12-x--------------------7---7---7---------------------|
D|---x--x---x--x---x--x---x--x---7---7\-----------7---7---7----7-7-7-7-7-7-7-7--|
A|---10-x---10-x---10-x---10-x---7---7\-----------5---5---5----7-7-7-7-7-7-7-7--|
E|-------------------------------5---5\------------------------5-5-5-5-5-5-5-5--|
     Fuck  this    place, let's  put up a parking lot

Ponte:

      F#5                   E5             F#5                  D5
E|------------------------------------|-----------------------------------------|
B|------------------------------------|-----------------------------------------|
G|---11----11----11--------9--9--9----|---11----11----11-------7--7--7----------|
D|---x-----x-----x---------x--x--x----|---x-----x-----x--------x--x--x----------|
A|---9-----9-----9---------7--7--7----|---9-----9-----9--------5--5--5----------|
E|------------------------------------|-----------------------------------------|
                 We  are   the broken,                no  end  in sight

      F#5                   G5             F#5                  E5
E|------------------------------------|-----------------------------------------|
B|------------------------------------|-----------------------------------------|
G|---11----11----11--------12-12-12---|---11----11----11-------9--9--9----------|
D|---x-----x-----x---------x--x--x----|---x-----x-----x--------x--x--x----------|
A|---9-----9-----9---------10-10-10---|---9-----9-----9--------7--7--7----------|
E|------------------------------------|-----------------------------------------|
                 We're the forgotten      soldiers  you  left  behind

      F#5                   E5             F#5                  D5
E|------------------------------------|-----------------------------------------|
B|------------------------------------|-----------------------------------------|
G|---11----11----11--------9--9--9----|---11----11----11-------7--7--7----------|
D|---x-----x-----x---------x--x--x----|---x-----x-----x--------x--x--x----------|
A|---9-----9-----9---------7--7--7----|---9-----9-----9--------5--5--5----------|
E|------------------------------------|-----------------------------------------|
                There's no use trying,                we lost  the war

      F#5                   G5             F#5                  E5
E|------------------------------------|-----------------------------------------|
B|------------------------------------|-----------------------------------------|
G|---11----11----11--------12-12-12---|---11----11----11-------9--9--9----------|
D|---x-----x-----x---------x--x--x----|---x-----x-----x--------x--x--x----------|
A|---9-----9-----9---------10-10-10---|---9-----9-----9--------7--7--7----------|
E|------------------------------------|-----------------------------------------|
              Now the dead and dying,           are back to even the score

Refrão:

     G                    A                   D5                      F#5
E|-----------------------------------------|-------------------------------------------------|
B|-----------------------------------------|-------------------------------------------------|
G|-----------------------------------------|-------------------------------------------------|
D|--5--5--5--5--5--5--5--7--7--7--7--7--7--|-7--7--7--7--7--7--7--7--4--4--4--4--4--4--4--4--|
A|--5--5--5--5--5--5--5--7--7--7--7--7--7--|-5--5--5--5--5--5--5--5--4--4--4--4--4--4--4--4--|
E|--3--3--3--3--3--3--3--5--5--5--5--5--5--|-------------------------2--2--2--2--2--2--2--2--|
       We    are   for---gotten   young su---burbia

     G                    A                   D5                      F#5
E|-----------------------------------------|-------------------------------------------------|
B|-----------------------------------------|-------------------------------------------------|
G|-----------------------------------------|-7--7--7--7--7--7--7--7----x--11-11----x--11-11--|
D|--5--5--5--5--5--5--5--7--7--7--7--7--7--|-x--x--x--x--x--x--x--x----x--x--x-----x--x--x---|
A|--5--5--5--5--5--5--5--7--7--7--7--7--7--|-5--5--5--5--5--5--5--5----x--9--9-----x--9--9---|
E|--3--3--3--3--3--3--3--5--5--5--5--5--5--|-------------------------------------------------|
         Loose on  the  streets of Ca--li----fornia

     G                   A                     D5                      F#5
E|------------------------------------------|-------------------------------------------------|
B|------------------------------------------|-------------------------------------------------|
G|-4--4--4--4--4--4--4--6--6--6--6--6--6--6-|-7--7--7--7--7--7--7--7--11-11-11-11-11-11-11-11-|
D|-x--x--x--x--x--x--x--x--x--x--x--x--x--x-|-x--x--x--x--x--x--x--x--x--x--x--x--x--x--x--x--|
A|-2--2--2--2--2--2--2--4--4--4--4--4--4--4-|-5--5--5--5--5--5--5--5--9--9--9--9--9--9--9--9--|
E|-3--3--3--3--3--3--3--5--5--5--5--5--5--5-|-------------------------------------------------|
   Underneath       fluorescent lights, we'll waste the best nights   of our life

      G5                          A5
E|--------------------------------------------------|
B|--------------------------------------------------|
G|---12-x---12-x---12-x---12-x----------------------|
D|---x--x---x--x---x--x---x--x---7---7\-------------|
A|---10-x---10-x---10-x---10-x---7---7\-------------|
E|-------------------------------5---5\-------------|
     Fuck  this    place, let's  put up a parking lot

Pós-refrão:

     F#5                                               E5
E|--------------------------------------------------|--------------------------------------------------|
B|--------------------------------------------------|--------------------------------------------------|
G|--11-11-11-11-11-11-11-11-11-11-11-11-11-11-11-11-|--9--9--9--9--9--9--9--9--9--9--9--9--9--9--9--9--|
D|--x--x--x--x--x--x--x--x--x--x--x--x--x--x--x--x--|--x--x--x--x--x--x--x--x--x--x--x--x--x--x--x--x--|
A|--9--9--9--9--9--9--9--9--9--9--9--9--9--9--9--9--|--7--7--7--7--7--7--7--7--7--7--7--7--7--7--7--7--|
E|--------------------------------------------------|--------------------------------------------------|
    Na na-na na-na na-na,                              na na-na na-na na-na

      G5                     A5               D5
E|--------------------------------------------------|
B|--------------------------------------------------|
G|-------------------------------------------7------|
D|---5/---------------------7\---------------7------|
A|---5/---------------------7\---------------5------|
E|---3/---------------------5\----------------------|
     Fuck this place, let's put up a parking lot

Clipes