busca

Pathetic

Blink-182

Tom: B
[Intro] 

   B/D#   E5   B5
E|-----------------|
B|-----------------|
G|--8-----9----4---|
D|--9-----9----4---|
A|--6-----7----2---|
E|-----------------|

   B/D#          E5          B5
E|------------------------------------------------------|
B|-5s7-----------5s7---------5s7---------4---4-----4----|
G|-----4-4-4-4-------4-4-4-4-----4-4-4-4---4---4-4---4--|
D|------------------------------------------------------|
A|------------------------------------------------------|
E|------------------------------------------------------|

[primeira parte]

  B5
I know i'm pathetic
I knew when she said it
  F#5                    E5
A loser a bum's what she called
Me when i drove her home
B5
There's no more waiting 
And sure no more wasting
     F#5
I've done all i can but she 
 E5
Still wants to be left alone
B5
You got you got you 
               F#5
Got to help me out
                 E5
And i'll try not to argue
B5
No one no one no
                 F#5
One likes a drop-out
             E5
Mistakes are hard to undo

[refrão]

G#5           B5 F#5
   don't pull me down
              B5
This is where i belong
  E5
I think i'm different but
I'm the same and i'm wrong
G#5           B5 F#5
   don't pull me down
              B5
This is where i belong
  E5
I think i'm different
This is where i belong

   B/D#          E5          B5
E|------------------------------------------------------|
B|-5s7-----------5s7---------5s7---------4---4-----4----|
G|-----4-4-4-4-------4-4-4-4-----4-4-4-4---4---4-4---4--|
D|------------------------------------------------------|
A|------------------------------------------------------|
E|------------------------------------------------------|

[segunda parte]

  B5
I think it's disgusting
Believing and trusting
   F#5
If i gave a fuck there would
E5
Be nothing for me to prove
  B5
Although it's amusing
It's slightly confusing
     F#5
I've done all i can but her
E5
Ego is still hard to move
B5
You got you got you
               F#5
Got to help me out
                 E5
And i'll try not to argue
B5
No one no one no
                 F#5
One likes a drop-out
             E5
Mistakes are hard to undo

[refrão]

G#5           B5 F#5
   don't pull me down
              B5
This is where i belong
  E5
I think i'm different but
I'm the same and i'm wrong
G#5           B5 F#5
   don't pull me down
              B5
This is where i belong
  E5
I think i'm different
This is where i belong

   B/D#          E5          B5
E|------------------------------------------------------|
B|-5s7-----------5s7---------5s7---------4---4-----4----|
G|-----4-4-4-4-------4-4-4-4-----4-4-4-4---4---4-4---4--|
D|------------------------------------------------------|
A|------------------------------------------------------|
E|------------------------------------------------------|

   G#5              B5   F#5            B5   E5
E|-----------------------------------------------------------|
B|-----------------------------------------------------------|
G|------------------4-4-----------------4-4------------------|
D|-6-6-6-6-6-6-6-6--x-x--4-4-4-4-4-4-4--x-x--2-2-2-2-2-2-2-2-|
A|-6-6-6-6-6-6-6-6--2-2--4-4-4-4-4-4-4--2-2--2-2-2-2-2-2-2-2-|
E|-4-4-4-4-4-4-4-4-------2-2-2-2-2-2-2-------0-0-0-0-0-0-0-0-|

[final]

G#5          B5 F#5
  don't pull me down
              B5
This is where i belong

  E5
I think i'm different
                  B5
This is where i belong

Clipes