busca

Pathetic

blink-182

Tom: B
CHORDS

    B5  F   Eb  G#  Bb F# E                  Base da Riff:

|----------------------------|          -----------------------------------------------
|-------11--9-------4--------|          -4-----5---------------------------------------
|---4---11--9-------4--3--1--|          -4-----4--------4------------------------------
|---4---11--9----6--4--4--2--|          -1-----2--------4------------------------------
|---2---9---7----6--2--4--2--|          ----------------2------------------------------
|----------------4-----2-----|          -----------------------------------------------

Riff:

|-------------------------------------------------------------------|
|---5---7--0--0--0--0--5---7--0--0--0--0--5--7--0--0--0--0---4--4--4|
|----------------------------------------------------------4--4--4--|
|-------------------------------------------------------------------|
|-------------------------------------------------------------------|
|-------------------------------------------------------------------|

Intro: Riff (x3 and a half)

Verse1:

  B5
i know i'm pathetic i knew when she said it
    F                Eb
a loser a bum's what she called me when i drove her home
B5
there's no more waiting and sure no more wasting
     F                    Eb
i've done all i can but she still wants to be left alone

 B5
you got you got you got to help me out
   F             Eb 
and i'll try not to argue
 B5
no one no one no one likes a drop out
  F          Eb
mistakes are hard to undo

CHORUS:

G#          Bb  F#
don't pull me down 
              Bb   
this is where i belong 
 E              
(i think i'm different but i'm the same & i'm wrong)
G#          Bb  F#
don't pull me down 
              Bb
this is where i belong             
 E
(I think i'm different)

this is where i belong

Riff:      



Repetir o Verse 1

i think its disgusting believing and trusting
if i gave a fuck there would be nothing for me to prove
although its amusing its slightly confusing
i've done all i can but her ego is still hard to move
you got you got you got to help me out
and i'll try not to argue
no one no one no one likes a drop out
mistakes are hard to undo

repetir CHORUS


Riff (x4)

G#, Bb-F#,Bb-E
 
repeat CHORUS

end on G#

Clipes