busca

Rabbit Hole

blink-182

Tom: G
[Intro/Verso]

Baixo / Bateria

Dear head, shut up
I can't listen no more
It's late, so shut up
Is one night too much to ask for?

[Pré-Refrão]

E|---------------------------------------------------------------------------|
B|---------------------------------------------------------------------------|
G|------7-7-7-7-7/9--5-5-5-5-5-5-5-5-----------------------------------------| 
D|------7-7-7-7-7/9--5-5-5-5-5-5-5-5-----------------------------------------|x 3
A|------5-5-5-5-5/7--3-3-3-3-3-3-3-3-----------------------------------------|
E|---------------------------------------------------------------------------|

D     E C
         You are a haunted house
D     E C
         You're superstitious
D     E C                      D
         You are the coldest stone carved marble faces



[Refrão]

Guitarra                                                                                    (1º e 3º vez)

E|---------------------------------------------------------------------------------------------------------|
B|---------------------------------------------------------------------------------------------------------|
G|--12-12-12-12-12-12-12-12----11--11--11--11--11--11--11--11------5--5--5--5--5--5--5------9---11--12-----|
D|--x--x--x--x---x--x--x--x----12--12--12--12--12--12--12--12------5--5--5--5--5--5--5------x---x---x------| 4x
A|--10-10-10-10-10-10-10-10----9---9---9---9---9---9---9---9-------3--3--3--3--3--3--3------7---9---10-----|
E|---------------------------------------------------------------------------------------------------------|



G             D                 C
I won't fall down that fucking rabbit hole
G            D               C
I'm barely standing on the ground
         G                            D                  C
All the hints that you leave are too hard to believe at all
G             D                 C
I won't fall down that fucking rabbit hole

      Baixo / Batera

E                             G
With you, with you, with you again
E                             G
With you, with you, with you again


Verso 2 

Primeira parte só o Baixo, depois:

Guitarra

E|---------------------------------------------------------------------------|
B|---------------------------------------------------------------------------|
G|--9-9-9-9--7-7-7-7--9-9-9-9--7-7-7-7---------------------------------------| 
D|--9-9-9-9--7-7-7-7--9-9-9-9--7-7-7-7---5-5-5-5-5-5-5-5---------------------|
A|--7-7-7-7--5-5-5-5--7-7-7-7--5-5-5-5---5-5-5-5-5-5-5-5---------------------|
E|---------------------------------------3-3-3-3-3-3-3-3---------------------|
  PM......................................................

E    D        E  D
This bed, on fire
   G
I can't sleep here no more
E    D        E   D
Too late and tired
  G
Dreaming down on the floor


[Pré-Refrão]

E|---------------------------------------------------------------------------|
B|---------------------------------------------------------------------------|
G|------7-7-7-7-7/9--5-5-5-5-5-5-5-5-----------------------------------------| 
D|------7-7-7-7-7/9--5-5-5-5-5-5-5-5-----------------------------------------|x 3
A|------5-5-5-5-5/7--3-3-3-3-3-3-3-3-----------------------------------------|
E|---------------------------------------------------------------------------|


D     E C
         I'm a haunted house
D     E C
         I'm superstitious
D     E C                   D
         I am a cardboard cutout, old and faded

[Refrão]

Guitarra                                                                                   (1º e 3º vez)

E|---------------------------------------------------------------------------------------------------------|
B|---------------------------------------------------------------------------------------------------------|
G|--12-12-12-12-12-12-12-12----11--11--11--11--11--11--11--11------5--5--5--5--5--5--5------9---11--12-----|
D|--x--x--x--x---x--x--x--x----12--12--12--12--12--12--12--12------5--5--5--5--5--5--5------x---x---x------| 4x
A|--10-10-10-10-10-10-10-10----9---9---9---9---9---9---9---9-------3--3--3--3--3--3--3------7---9---10-----|
E|---------------------------------------------------------------------------------------------------------|



G             D                 C
I won't fall down that fucking rabbit hole
G            D               C
I'm barely standing on the ground
         G                            D                  C
All the hints that you leave are too hard to believe at all
G             D                 C
I won't fall down that fucking rabbit hole





[Ponte]

E|--------------------------------------------------------|
B|--------------------------------------------------------|
G|--------------------------------------------------------| 
D|--------------------------------------------------------|
A|--7-7-7-7-7-7-7-7------10-10-10-10-10-10-10-10----------|
E|--------------------------------------------------------|
  PM............................................                         2x
 
E|--------------------------------------------------------|
B|--------------------------------------------------------|
G|-----------------------12-12-12-12---14-14-14-14--------| 
D|------------------------x--x--x--x----x--x--x--x--------|
A|--7-7-7-7-7-7-7-7------10-10-10-10---12-12-12-12--------|
E|--------------------------------------------------------|
  PM............................................

E                             C
With you, with you, with you again
E                             C      D
With you, with you, with you again
E                             C
With you, with you, with you again
E                             C      D
With you, with you, with you again


[Refrão]

Guitarra                                                                                   (1º e 3º vez)

E|---------------------------------------------------------------------------------------------------------|
B|---------------------------------------------------------------------------------------------------------|
G|--12-12-12-12-12-12-12-12----11--11--11--11--11--11--11--11------5--5--5--5--5--5--5------9---11--12-----|
D|--x--x--x--x---x--x--x--x----12--12--12--12--12--12--12--12------5--5--5--5--5--5--5------x---x---x------| 4x
A|--10-10-10-10-10-10-10-10----9---9---9---9---9---9---9---9-------3--3--3--3--3--3--3------7---9---10-----|
E|---------------------------------------------------------------------------------------------------------|



G             D                 C
I won't fall down that fucking rabbit hole
G            D               C
I'm barely standing on the ground
         G                            D                  C
All the hints that you leave are too hard to believe at all
G             D                 C
I won't fall down that fucking rabbit hole


[Final]

Baixo / Batera

Clipes