Rock show

Blink-182

Tom: G
 Intro and main riff

#1t1##1t2#|-----------------------------------------------------------|
|-----------------------------------------------------------|
|----------------7------------------------------------------|
|--7-------------7------------------------------------------|
|--7-777 555-444-5-777-55555-4-7-4-0------------------------|
|--5--------------------------------------------------------|#/1t2##/1t1#

 Verse

#2t1##2t2#|-----------------------------------------------------------|
|-----------------------------------------------------------|
|----------------7---9--------------------------------------|
|--7-------------7---9--------------------------------------|
|--7-------------5---7--------------------------------------|
|--5--------------------------------------------------------|#/2t2##/2t1#


 Chorus

#3t1##3t2#|-----------------------------------------------------------|
|-----------------------------------------------------------|
|--------------------------------------------7--------------|
|--7----------------------4------------------7--------------|
|--7----------------------4------------------5--------------|
|--5----------------------2---------------------------------|#/3t2##/3t1#

 i fell in love with the girl at the         rock show
  she said what and i     told her i         didnt know
  shes so cool better     sneak throo her    window

#4t1##4t2#|-----------------------------------------------------------|
|-----------------------------------------------------------|
|----------------------------------7--------------------6---|
|--9-------------------------------7--------------------6---|
|--9-------------------------------5--------------------4---|
|--7--------------------------------------------------------|#/4t2##/4t1#

  everythings better when          shes around
  cant wait till her parents go    out of town
  fell in love with the            girl at the rock     show

 Interlude

#5t1##5t2#|-----------------------------------------------------------|
|-----------------------------------------------------------|
|-----------------------------------------------------------|
|----6-6-6-7------------------------------------------------|
|-----7-7-7-7-----------------------------------------------|
|-----------------------------------------------------------|#/5t2##/5t1#

Thats the Rock Show!
Composição: Colaboração e revisão: