busca

Rock show

blink-182

Tom: A
 Intro and main riff

|-----------------------------------------------------------|
|-----------------------------------------------------------|
|----------------7------------------------------------------|
|--7-------------7------------------------------------------|
|--7-777 555-444-5-777-55555-4-7-4-0------------------------|
|--5--------------------------------------------------------|

 Verse

|-----------------------------------------------------------|
|-----------------------------------------------------------|
|----------------7---9--------------------------------------|
|--7-------------7---9--------------------------------------|
|--7-------------5---7--------------------------------------|
|--5--------------------------------------------------------|


 Chorus

|-----------------------------------------------------------|
|-----------------------------------------------------------|
|--------------------------------------------7--------------|
|--7----------------------4------------------7--------------|
|--7----------------------4------------------5--------------|
|--5----------------------2---------------------------------|

 i fell in love with the girl at the         rock show
  she said what and i     told her i         didnt know
  shes so cool better     sneak throo her    window

|-----------------------------------------------------------|
|-----------------------------------------------------------|
|----------------------------------7--------------------6---|
|--9-------------------------------7--------------------6---|
|--9-------------------------------5--------------------4---|
|--7--------------------------------------------------------|

  everythings better when          shes around
  cant wait till her parents go    out of town
  fell in love with the            girl at the rock     show

 Interlude

|-----------------------------------------------------------|
|-----------------------------------------------------------|
|-----------------------------------------------------------|
|----6-6-6-7------------------------------------------------|
|-----7-7-7-7-----------------------------------------------|
|-----------------------------------------------------------|

Thats the Rock Show!

Clipes