Roller Coaster

Blink-182

Tom: G
#1t1#


INTRO-distorção
#1t2#e|----------------------------------------------------|
B|----------------------------------------------------|
G|-6---6-7-6-------6---6-7-6--------------------------|
D|---7-------7---7---7-------7---7-7------------------|
A|-------------0---------------0---7---let ring-------|
E|---------------------------------5------------------|#/1t2##/1t1#

#2t1#Repetindo VERSO
#2t2#e|---------------------------------------------------|
B|---------------------------------------------------|
G|---------------------------------------------------|
D|-----7-----7-----7-----7-----7-----7-----7-----7---|
A|---------------------------------------------------|
E|-5-5---5-5---5-5---5-5---5-5---5-5---5-5---5-5-----|#/2t2##/2t1#
   Breathing    deeply      walking       backwards
 
#3t1##3t2#e|---------------------------------------------------|
B|---------------------------------------------------|
G|---------------------------------------------------|
D|-----7-----7-----7-----7-----7-----7-----7-----7---|
A|-4-4---4-4---4-4---4-4---------------5-5---5-5-----|
E|-------------------------7-7---7-7-----------------|#/3t2##/3t1#
   Finding     strenght to  call and      ask her

#4t1##4t2#e|---------------------------------------------------|
B|---------------------------------------------------|
G|---------------------------------------------------|
D|-----7-----7-----7-----7-----7-----7-----7-----7---|
A|---------------------------------------------------|
E|-5-5---5-5---5-5---5-5---5-5---5-5---5-5---5-5-----|#/4t2##/4t1#
   Roller      coaster      favourite     ride
 
#5t1##5t2#e|---------------------------------------------------|
B|---------------------------------------------------|
G|---------------------------------------------------|
D|-----7-----7-----7-----7-----7-----7-----7-----7---|
A|-4-4---4-4---4-4---4-4---------------5-5---5-5-----|
E|-------------------------7-7---7-7-----------------|#/5t2##/5t1#
   Let me      kiss you     one last      time

#6t1#BRIDGE-distorção
#6t2#e|------------------------------------------------------------------|
B|------------------------------------------------------------------|
G|------------------------------------------------------------------|
D|------------------------------------------------------------------|  2x
A|-4---4-5-4-------4---4-5-4-------4---4-5-4--------4---4-5-4-------|
E|---5-------5-5-5---5-------5-5-5---5-------5-5-7----5-------5-5-5-|#/6t2##/6t1#

#7t1#VERSOS
#7t2#e|------------------------------------------------------|
B|------------------------------------------------------|
G|--------------7-7--7-7-7-7--------------7-7--7-7-7-7--|
D|-7-7--7-7-7-7-7-7--7-7-7-7-9-9--9-9-9-9-7-7--7-7-7-7--|
A|-7-7--7-7-7-7-5-5--5-5-5-5-9-9--9-9-9-9-5-5--5-5-5-5--|
E|-5-5--5-5-5-5--------------7-7--7-7-7-7---------------|#/7t2##/7t1#

#8t1#PARTE DO EFEITO WEIRD
#8t2#e|-------------------------------|-----------------------------------|
B|-------------------------------|-----------------------------------|
G|-------------------------------|-------------------7-7-7------x2---|
D|-7-7-7-7-7-7-7-7-7-7-7-7-7-7-7-|-7-7-7-7-7-7-2-2-2-7-7-7-----------|
A|-7-7-7-7-7-7-7-7-7-7-7-7-7-7-7-|-7-7-7-7-7-7-2-2-2-5-5-5-----------|
E|-5-5-5-5-5-5-5-5-5-5-5-5-5-5-5-|-5-5-5-5-5-7-0-0-0-----------------|#/8t2##/8t1#

#9t1#REPETINDO ULTIMO VERSO
#9t2#e|---------------------------------------------------------------------------|
B|---------------------------------------------------------------------------|
G|-----------------------------------7-7-7-7-7-7-7-7-7-7---------7-7-7-7-----|
D|-7-7-7-7-7-7-7-7-7-7-7-7-7-7-7-7-7-7-7-7-7-7-7-7-7-7-7-9-9-9-9-7-7-7-7-----|
A|-7-7-7-7-7-7-7-7-7-7-7-7-7-7-7-7-7-5-5-5-5-5-5-5-5-5-5-7-7-7-7-5-5-5-5-----|
E|-5-5-5-5-5-5-5-5-5-5-5-5-5-5-5-5-5---------------------7-7-7-7-------------|#/9t2##/9t1#
   Breathing deeply walking backwards finding strenght to call and ask her... 
fINAL
#10t1##10t2#e|-----------------------------------------------------------|
B|-----------------------------------------------------------|
G|-6---6-7-6-------6---6-7-6---------------------------------|
D|---7-------7---7---7-------7---7-7-------------------------|
A|-------------9---------------9---7--let ring---------------|
E|---------------------------------5-------------------------|#/10t2##/10t1#
Composição: Colaboração e revisão: