busca

Roller Coaster

blink-182

Tom: A


INTRO-distorção
e|----------------------------------------------------|
B|----------------------------------------------------|
G|-6---6-7-6-------6---6-7-6--------------------------|
D|---7-------7---7---7-------7---7-7------------------|
A|-------------0---------------0---7---let ring-------|
E|---------------------------------5------------------|

Repetindo VERSO
e|---------------------------------------------------|
B|---------------------------------------------------|
G|---------------------------------------------------|
D|-----7-----7-----7-----7-----7-----7-----7-----7---|
A|---------------------------------------------------|
E|-5-5---5-5---5-5---5-5---5-5---5-5---5-5---5-5-----|
   Breathing    deeply      walking       backwards
 
e|---------------------------------------------------|
B|---------------------------------------------------|
G|---------------------------------------------------|
D|-----7-----7-----7-----7-----7-----7-----7-----7---|
A|-4-4---4-4---4-4---4-4---------------5-5---5-5-----|
E|-------------------------7-7---7-7-----------------|
   Finding     strenght to  call and      ask her

e|---------------------------------------------------|
B|---------------------------------------------------|
G|---------------------------------------------------|
D|-----7-----7-----7-----7-----7-----7-----7-----7---|
A|---------------------------------------------------|
E|-5-5---5-5---5-5---5-5---5-5---5-5---5-5---5-5-----|
   Roller      coaster      favourite     ride
 
e|---------------------------------------------------|
B|---------------------------------------------------|
G|---------------------------------------------------|
D|-----7-----7-----7-----7-----7-----7-----7-----7---|
A|-4-4---4-4---4-4---4-4---------------5-5---5-5-----|
E|-------------------------7-7---7-7-----------------|
   Let me      kiss you     one last      time

BRIDGE-distorção
e|------------------------------------------------------------------|
B|------------------------------------------------------------------|
G|------------------------------------------------------------------|
D|------------------------------------------------------------------|  2x
A|-4---4-5-4-------4---4-5-4-------4---4-5-4--------4---4-5-4-------|
E|---5-------5-5-5---5-------5-5-5---5-------5-5-7----5-------5-5-5-|

VERSOS
e|------------------------------------------------------|
B|------------------------------------------------------|
G|--------------7-7--7-7-7-7--------------7-7--7-7-7-7--|
D|-7-7--7-7-7-7-7-7--7-7-7-7-9-9--9-9-9-9-7-7--7-7-7-7--|
A|-7-7--7-7-7-7-5-5--5-5-5-5-9-9--9-9-9-9-5-5--5-5-5-5--|
E|-5-5--5-5-5-5--------------7-7--7-7-7-7---------------|

PARTE DO EFEITO WEIRD
e|-------------------------------|-----------------------------------|
B|-------------------------------|-----------------------------------|
G|-------------------------------|-------------------7-7-7------x2---|
D|-7-7-7-7-7-7-7-7-7-7-7-7-7-7-7-|-7-7-7-7-7-7-2-2-2-7-7-7-----------|
A|-7-7-7-7-7-7-7-7-7-7-7-7-7-7-7-|-7-7-7-7-7-7-2-2-2-5-5-5-----------|
E|-5-5-5-5-5-5-5-5-5-5-5-5-5-5-5-|-5-5-5-5-5-7-0-0-0-----------------|

REPETINDO ULTIMO VERSO
e|---------------------------------------------------------------------------|
B|---------------------------------------------------------------------------|
G|-----------------------------------7-7-7-7-7-7-7-7-7-7---------7-7-7-7-----|
D|-7-7-7-7-7-7-7-7-7-7-7-7-7-7-7-7-7-7-7-7-7-7-7-7-7-7-7-9-9-9-9-7-7-7-7-----|
A|-7-7-7-7-7-7-7-7-7-7-7-7-7-7-7-7-7-5-5-5-5-5-5-5-5-5-5-7-7-7-7-5-5-5-5-----|
E|-5-5-5-5-5-5-5-5-5-5-5-5-5-5-5-5-5---------------------7-7-7-7-------------|
   Breathing deeply walking backwards finding strenght to call and ask her... 
fINAL
e|-----------------------------------------------------------|
B|-----------------------------------------------------------|
G|-6---6-7-6-------6---6-7-6---------------------------------|
D|---7-------7---7---7-------7---7-7-------------------------|
A|-------------9---------------9---7--let ring---------------|
E|---------------------------------5-------------------------|

Clipes