busca

San Diego

blink-182

Tom: C
Intro:

E|-----0------0-------0-------0----------0---------0---------0------------
B|-----1------1-------1-------1----------1---------1---------1------------
G|------------------------------------------------------------------------
D|------------------------------------------------------------------------
A|-0-0----0-0-------------------------------------------------------------
E|-----------------3-3-----3-3--------1-1--------1-1-------1-1----1-1/3---



Verso 1:

Sometimes I wonder where our lives go
They question who we used to be
Sometimes I feel like I'm the oxygen between
The cigarette and gasoline

E|-----0------0-------0-------0----------0---------0---------0------------
B|-----1------1-------1-------1----------1---------1---------1------------
G|------------------------------------------------------------------------
D|------------------------------------------------------------------------    4x
A|-0-0----0-0-------------------------------------------------------------
E|-----------------3-3-----3-3--------1-1--------1-1-------1-1----1-1/3---


E5        F5          G5
I can't sleep cause what if I dream



Refrão:

                      A5
Of going back to San Diego
            F5
We bought a one way ticket
   C5                   G5
So we could go see the Cure
                   A5                    F5
And listen to our favorite songs in the parking lot
    C5                       G5              A5
And think of every person I ever lost to San Diego
        F5     C5 G5
(To San Diego)
                  A5      F5
Can't go back to San Diego
                  C5      G5
(Can't go back to San Diego)


GUITARRA 2 Refrão:

E|----------------------|     |------------------------|
B|----------------------|     |------------------------|
G|-9-----10----9-----7--|     |-9----10---9----4----5--|
D|-X-----X-----X-----X--| 2x  |-x----x----x----x----x--| 2x
A|-7-----8-----7-----5--|     |-7----8----7----2----3--|
E|----------------------|     |------------------------|



Verso 2:

Abandoned houses with the lights on
Late at night I call your name
Abandoned love songs smashed across the hardwood floors
I read the sadness on your face

E|-----0------0-------0-------0----------0---------0---------0------------
B|-----1------1-------1-------1----------1---------1---------1------------
G|------------------------------------------------------------------------
D|------------------------------------------------------------------------    4x
A|-0-0----0-0-------------------------------------------------------------
E|-----------------3-3-----3-3--------1-1--------1-1-------1-1----1-1/3---


E5        F5          G5
I can't sleep cause what if I dream



Refrão:

                      A5
Of going back to San Diego
            F5
We bought a one way ticket
   C5                   G5
So we could go see the Cure
                   A5                    F5
And listen to our favorite songs in the parking lot
    C5                       G5              A5
And think of every person I ever lost to San Diego
        F5     C5 G5
(To San Diego)
                  A5      F5
Can't go back to San Diego
                  C5      G5
(Can't go back to San Diego)


GUITARRA 2 Refrão:

E|----------------------|     |------------------------|
B|----------------------|     |------------------------|
G|-9-----10----9-----7--|     |-9----10---9----4----5--|
D|-X-----X-----X-----X--| 2x  |-x----x----x----x----x--| 2x
A|-7-----8-----7-----5--|     |-7----8----7----2----3--|
E|----------------------|     |------------------------|


Ponte:

I never needed to hear
All of the pain and the fear
Your secrets filled up my ears
Like the ocean blue
I never wanted to know
How deep these cuts on you go
And like a river they flow
To the ocean blue

E|-----------------------------------------------------------------
B|-----------------------------------------------------------------
G|-----------------------------------------------------------------
D|-----5------5------5------5--------2------2-----2------2---------
A|-3-3----3-3----3-3----3-3------0-0----0-0---0-0----0-0-----------
E|-----------------------------------------------------------------
                                                                             2x
E|-----------------------------------------------------------------
B|-----------------------------------------------------------------
G|-----------------------------------------------------------------
D|-----------------------------------------------------------------
A|-----5------5------5------5--------3------3------5------5--------
E|-3-3----3-3----3-3----3-3------1-1----1-1----3-3----3-3----------



Instrumental:

   A5 / F5 / C5 / G5

  Guitarra 02:                                              2x

E|-8-8-8-8-8-8-8-8-7h8-----------------------------
B|-------------------------------------------------
G|-------------------------------------------------
D|-------------------------------------------------
A|-------------------------------------------------
E|-------------------------------------------------



Refrão:

                      A5
Of going back to San Diego
            F5
We bought a one way ticket
   C5                   G5
So we could go see the Cure
                   A5                    F5
And listen to our favorite songs in the parking lot
    C5                       G5              A5
And think of every person I ever lost to San Diego
        F5     C5 G5
(To San Diego)
                  A5      F5
Can't go back to San Diego
                  C5      G5
(Can't go back to San Diego)


GUITARRA 2 Refrão:

E|----------------------|     |------------------------|
B|----------------------|     |------------------------|
G|-9-----10----9-----7--|     |-9----10---9----4----5--|
D|-X-----X-----X-----X--| 2x  |-x----x----x----x----x--| 2x
A|-7-----8-----7-----5--|     |-7----8----7----2----3--|
E|----------------------|     |------------------------|



Final:

E|-----0------0-------0-------0----------0---------0---------0------------
B|-----1------1-------1-------1----------1---------1---------1------------
G|------------------------------------------------------------------------
D|------------------------------------------------------------------------   
A|-0-0----0-0-------------------------------------------------------------
E|-----------------3-3-----3-3--------1-1--------1-1-------1-1----1-1/3---


E|-----0------0-------0-------0----------0---------0---------0------------
B|-----1------1-------1-------1----------1---------1---------1------------
G|------------------------------------------------------------------------
D|------------------------------------------------------------------------    
A|-0-0----0-0-------------------------------------------------------------
E|-----------------3-3-----3-3--------1-1--------1-1-------1-1------------

Clipes