She's Out Of Her Mind

Blink-182

A5
12
X022XX
C5
134
X355XX
E/G#
1234
4X245X
F5
134
133XXX
G5
134
355XXX
Tom: G
[Intro]

#1t1#   C5  G5  A5  G5   
#1t2#E|---------------------------------|
B|-----5------5------5------5------|
G|-5-5----5-5----5-5----5-5--------|
D|---------------------------------|
A|---------------------------------|
E|---------------------------------|#/1t2##/1t1#

[Verso]

I said: Settle down, settle down everything is fine
Take your eyes off the floor
She said: No I'm not, no I'm not, no I'm not alright
I lost my head on the door

( C5  G5  A5  G5 )

#2t1##2t2#E|---------------------------------|
B|-----5------5------5------5------|
G|-5-5----5-5----5-5----5-5--------|
D|---------------------------------|
A|---------------------------------|
E|---------------------------------|#/2t2##/2t1#

      A5  G5      F5
She's antisocial, antisocial
      A5  G5    F5
She's an  angel YEAHH!!!

[Refrão]:

I'm in deep with this girl but she's out of her mind
She said: Babe, I'm sorry but I'm crazy tonight
   
#3t1#    C5         G5         A5         F5   G5
#3t2#E|---------------------------------------------------|
B|---------------------------------------------------|
G|-5-5-5-5-------------------------------------------|
D|-5-5-5-5----5-5-5-5----7-7-7-7----3-3----5-5-------| 2x
A|-3-3-3-3----5-5-5-5----7-7-7-7----3-3----5-5-------|
E|------------3-3-3-3----5-5-5-5----1-1----3-3-------|#/3t2##/3t1#

#4t1##4t2#E|---------------------------------------------------|
B|---------------------------------------------------|
G|-12---------7----------9----------10-10--12--12----|
D|-X----------X----------X----------X--X---X---X----- 2x                
A|-10---------5----------7----------8--8---10--10----|
E|---------------------------------------------------|#/4t2##/4t1#

She got a black shirt, black skirt
And Bauhaus stuck in her head

#5t1#    F5          G5          E/G#       A5  G5
#5t2#E|--------------------------------------------------|
B|--------------------------------------------------|
G|--------------------------------------------------|
D|-3-| X-3-3-----5-X-5-5-----6-6-6-6----7-7-5-5-----|
A|-3-| X-3-3-----5-X-5-5-----7-7-7-7----7-7-5-5-----|
E|-1-| X-1-1-----3-X-3-3-----4-4-4-4----5-5-3-3-----|#/5t2##/5t1#

#6t1##6t2#E|--------------------------------------------------|
B|--------------------------------------------------|
G|-5--5-5------7--7-7------9-9-9-9-9-9-9--7-7-------|
D|-x--x-x------x--x-x------x-x-x-x-x-x-x--x-x-------|
A|-3--3-3------5--5-5------7-7-7-7-7-7-7--5-5-------|
E|--------------------------------------------------|#/6t2##/6t1#

I'm in deep with this girl but she's out of her mind
   
#7t1#    C5         G5         A5         F5   G5
#7t2#E|---------------------------------------------------|
B|---------------------------------------------------|
G|-5-5-5-5-------------------------------------------|
D|-5-5-5-5----5-5-5-5----7-7-7-7----3-3----5-5-------|
A|-3-3-3-3----5-5-5-5----7-7-7-7----3-3----5-5-------|
E|------------3-3-3-3----5-5-5-5----1-1----3-3-------|#/7t2##/7t1#

#8t1##8t2#E|---------------------------------------------------|
B|---------------------------------------------------|
G|-12---------7----------9----------10-10--12--12----|
D|-X----------X----------X----------X--X---X---X-----|                        
A|-10---------5----------7----------8--8---10--10----|
E|---------------------------------------------------|#/8t2##/8t1#

   C5    G5
oh yeeeeaaaah
F5
We all need something to live for 
    C5   G5
oh yeeeeaaaah
F5           A5          G5
We all need something to live for

#9t1##9t2#E|-----------------------|
B|-----------------------|
G|-9----7----10-----12---|
D|-X----X----X------X----|
A|-7----5----8------10---|
E|-----------------------|#/9t2##/9t1#

#10t1##10t2#E|--------------------------|
B|--------------------------|
G|-9----7----10---9-9--7-7--|
D|-X----X----X----X-X--X-X--|
A|-7----5----8----7-7--5-5--|
E|--------------------------|#/10t2##/10t1#

She said I let her down, let her down
I no longer dream of anything anymore
Said I'm a know-it-all, know-it-all
You make me want to scream
And threw herself on the floor

( C5  G5  A5  G5 )

#11t1##11t2#E|-------------------3------3---------------------------------|
B|-----5------5--------------------5------5------3-------3----|
G|-5-5----5-5----5-5----5-5----5-5----5-5----5-5----5-5-------| 2x
D|------------------------------------------------------------|
A|------------------------------------------------------------|
E|------------------------------------------------------------|#/11t2##/11t1#

      A5  G5      F5
She's antisocial, antisocial
      A5  G5    F5
She's an  angel YEAHH!!!

#12t1##12t2#E|-15-15-15---13-13-13---12-12-12--------------12-12-------------|
B|----------------------------------15-15-15-----------13-13-----|
G|---------------------------------------------------------------|
D|---------------------------------------------------------------|
A|---------------------------------------------------------------|
E|---------------------------------------------------------------|#/12t2##/12t1#

[Refrão]

I'm in deep with this girl but she's out of her mind
She said: Babe, I'm sorry but I'm crazy tonight

#13t1#    C5         G5         A5         F5   G5
#13t2#E|---------------------------------------------------|
B|---------------------------------------------------|
G|-5-5-5-5-------------------------------------------|
D|-5-5-5-5----5-5-5-5----7-7-7-7----3-3----5-5-------| 2x
A|-3-3-3-3----5-5-5-5----7-7-7-7----3-3----5-5-------|
E|------------3-3-3-3----5-5-5-5----1-1----3-3-------|#/13t2##/13t1#

#14t1##14t2#E|---------------------------------------------------|
B|---------------------------------------------------|
G|-12---------7----------9----------10-10--12--12----|
D|-X----------X----------X----------X--X---X---X-----|                
A|-10---------5----------7----------8--8---10--10----|
E|---------------------------------------------------|#/14t2##/14t1#

She got a black shirt, black skirt
And Bauhaus stuck in her head

#15t1#    F5          G5          E/G#       A5  G5
#15t2#E|--------------------------------------------------|
B|--------------------------------------------------|
G|--------------------------------------------------|
D|-3-| X-3-3-----5-X-5-5-----6-6-6-6----7-7-5-5-------|
A|-3-| X-3-3-----5-X-5-5-----7-7-7-7----7-7-5-5-------|
E|-1-| X-1-1-----3-X-3-3-----4-4-4-4----5-5-3-3-------|#/15t2##/15t1#

#16t1##16t2#E|--------------------------------------------------|
B|--------------------------------------------------|
G|-5--5-5------7--7-7------9-9-9-9-9-9-9--7-7-------|
D|-x--x-x------x--x-x------x-x-x-x-x-x-x--x-x-------|
A|-3--3-3------5--5-5------7-7-7-7-7-7-7--5-5-------|
E|--------------------------------------------------|#/16t2##/16t1#

I'm in deep with this girl but she's out of her mind
   
#17t1#    C5         G5         A5         F5   G5
#17t2#E|---------------------------------------------------|
B|---------------------------------------------------|
G|-5-5-5-5-------------------------------------------|
D|-5-5-5-5----5-5-5-5----7-7-7-7----3-3----5-5-------|
A|-3-3-3-3----5-5-5-5----7-7-7-7----3-3----5-5-------|
E|------------3-3-3-3----5-5-5-5----1-1----3-3-------|#/17t2##/17t1#

#18t1##18t2#E|---------------------------------------------------|
B|---------------------------------------------------|
G|-12---------7----------9----------10-10--12--12----|
D|-X----------X----------X----------X--X---X---X-----|                          
A|-10---------5----------7----------8--8---10--10----|
E|---------------------------------------------------|#/18t2##/18t1#

She's not complicated
Can't be overstated at all
She's not complicated-ated-ated at all

( C5  G5  A5  G5 )
( C5  G5  A5  G5 )
( C5  G5  A5  G5 )
( C5  G5  A5  G5 )


#19t1##19t2#E|-12---------12--------13-12--------------|
B|----15-13------15-13--------15-13--------|
G|-----------------------------------------| 2X
D|-----------------------------------------|
A|-----------------------------------------|
E|-----------------------------------------|#/19t2##/19t1#

#20t1##20t2#E|-----------------------------------------|
B|-8~~~~~~---8-6~~~~~~6--------------------|
G|-----------------------------------------| 2X
D|-----------------------------------------|
A|-----------------------------------------|
E|-----------------------------------------|#/20t2##/20t1#

[Refrão]

I'm in deep with this girl but she's out of her mind
She said: Babe, I'm sorry but I'm crazy tonight
   
#21t1#    C5                    A5         F5   G5
#21t2#E|--------------------------------------------------------|
B|--------------------------------------------------------|
G|-5-5-5-5------------------------------------------------|
D|-5-5-5-5---------------7-7-7-7----3-3----5-5------------|
A|-3-3-3-3---------------7-7-7-7----3-3----5-5------------|
E|-----------------------5-5-5-5----1-1----3-3------------|#/21t2##/21t1#

#22t1#    C5         G5         A5         F5   G5
#22t2#E|--------------------------------------------------------|
B|--------------------------------------------------------|
G|-5-5-5-5------------------------------------------------|
D|-5-5-5-5----5-5-5-5----7-7-7-7----3-3----5-5------------|
A|-3-3-3-3----5-5-5-5----7-7-7-7----3-3----5-5------------|
E|------------3-3-3-3----5-5-5-5----1-1----3-3------------|#/22t2##/22t1#

#23t1##23t2#E|---------------------------------------------------|
B|---------------------------------------------------|
G|-12---------7----------9----------10-10--12--12----|
D|-X----------X----------X----------X--X---X---X-----|                       
A|-10---------5----------7----------8--8---10--10----|
E|---------------------------------------------------|#/23t2##/23t1#

She got a black shirt, black skirt
And Bauhaus stuck in her head

#24t1#    F5          G5          E/G#       A5  G5
#24t2#E|--------------------------------------------------|
B|--------------------------------------------------|
G|--------------------------------------------------|
D|-3--| X-3-3-----5-X-5-5-----6-6-6-6----7-7-5-5------|
A|-3--| X-3-3-----5-X-5-5-----7-7-7-7----7-7-5-5------|
E|-1--| X-1-1-----3-X-3-3-----4-4-4-4----5-5-3-3------|#/24t2##/24t1#

(Guitar 02)

#25t1##25t2#E|--------------------------------------------------|
B|--------------------------------------------------|
G|-5--5-5------7--7-7------9-9-9-9-9-9-9--7-7-------|
D|-x--x-x------x--x-x------x-x-x-x-x-x-x--x-x-------|
A|-3--3-3------5--5-5------7-7-7-7-7-7-7--5-5-------|
E|--------------------------------------------------|#/25t2##/25t1#

I'm in deep with this girl but she's out of her mind
   
#26t1#    C5         G5         A5         F5   G5
#26t2#E|---------------------------------------------------|
B|---------------------------------------------------|
G|-5-5-5-5-------------------------------------------|
D|-5-5-5-5----5-5-5-5----7-7-7-7----3-3----5-5-------|
A|-3-3-3-3----5-5-5-5----7-7-7-7----3-3----5-5-------|
E|------------3-3-3-3----5-5-5-5----1-1----3-3-------|#/26t2##/26t1#


   GUITAR 02

#27t1##27t2#E|---------------------------------------------------|
B|---------------------------------------------------|
G|-12---------7----------9----------10-10--12--12----|
D|-X----------X----------X----------X--X---X---X-----|                          
A|-10---------5----------7----------8--8---10--10----|
E|---------------------------------------------------|#/27t2##/27t1#

   C5    G5
oh yeeeeaaaah
F5
We all need something to live for 
    C5   G5
oh yeeeeaaaah
F5           A5          G5         C5
We all need something to live for

#28t1##28t2#E|-8-8-8---------------------------------------|
B|---------8-8-8---6-6-6---5-5-5---------5-5---|
G|---------------------------------7-7---------|
D|---------------------------------------------|
A|---------------------------------------------|
E|---------------------------------------------|#/28t2##/28t1#

#29t1##29t2#E|-8-8-8---------------------------------------|
B|---------8-8-8---6-6-6---5-5-5---------------|
G|---------------------------------7-7---5-5---|
D|---------------------------------------------|
A|---------------------------------------------|
E|---------------------------------------------|#/29t2##/29t1#

#30t1##30t2#E|-8-8-8---------------------------------------|
B|---------8-8-8---6-6-6-6----8-8--------------|
G|-----------------------------------5---------|
D|-----------------------------------| X---------|
A|-----------------------------------3---------|
E|---------------------------------------------|#/30t2##/30t1#

#31t1##31t2#E|-8-8-8---------------------------------------|
B|---------8-8-8---6-6-6---5-5-5---------5-5---|
G|---------------------------------7-7---------|
D|---------------------------------------------|
A|---------------------------------------------|
E|---------------------------------------------|#/31t2##/31t1#
Composição: Barker / Feldmann / Hoppus / SkibaColaboração e revisão: Renan Luiz