busca

She's Out Of Her Mind

Blink-182

Tom: C
[Intro]

   C5  G5  A5  G5   
E|---------------------------------|
B|-----5------5------5------5------|
G|-5-5----5-5----5-5----5-5--------|
D|---------------------------------|
A|---------------------------------|
E|---------------------------------|

[Verso]

I said: Settle down, settle down everything is fine
Take your eyes off the floor
She said: No I'm not, no I'm not, no I'm not alright
I lost my head on the door

( C5  G5  A5  G5 )

E|---------------------------------|
B|-----5------5------5------5------|
G|-5-5----5-5----5-5----5-5--------|
D|---------------------------------|
A|---------------------------------|
E|---------------------------------|

      A5  G5      F5
She's antisocial, antisocial
      A5  G5    F5
She's an  angel YEAHH!!!

[Refrão]:

I'm in deep with this girl but she's out of her mind
She said: Babe, I'm sorry but I'm crazy tonight
   
    C5         G5         A5         F5   G5
E|---------------------------------------------------|
B|---------------------------------------------------|
G|-5-5-5-5-------------------------------------------|
D|-5-5-5-5----5-5-5-5----7-7-7-7----3-3----5-5-------| 2x
A|-3-3-3-3----5-5-5-5----7-7-7-7----3-3----5-5-------|
E|------------3-3-3-3----5-5-5-5----1-1----3-3-------|

E|---------------------------------------------------|
B|---------------------------------------------------|
G|-12---------7----------9----------10-10--12--12----|
D|-X----------X----------X----------X--X---X---X----- 2x                
A|-10---------5----------7----------8--8---10--10----|
E|---------------------------------------------------|

She got a black shirt, black skirt
And Bauhaus stuck in her head

    F5          G5          E/G#       A5  G5
E|--------------------------------------------------|
B|--------------------------------------------------|
G|--------------------------------------------------|
D|-3-| X-3-3-----5-X-5-5-----6-6-6-6----7-7-5-5-----|
A|-3-| X-3-3-----5-X-5-5-----7-7-7-7----7-7-5-5-----|
E|-1-| X-1-1-----3-X-3-3-----4-4-4-4----5-5-3-3-----|

E|--------------------------------------------------|
B|--------------------------------------------------|
G|-5--5-5------7--7-7------9-9-9-9-9-9-9--7-7-------|
D|-x--x-x------x--x-x------x-x-x-x-x-x-x--x-x-------|
A|-3--3-3------5--5-5------7-7-7-7-7-7-7--5-5-------|
E|--------------------------------------------------|

I'm in deep with this girl but she's out of her mind
   
    C5         G5         A5         F5   G5
E|---------------------------------------------------|
B|---------------------------------------------------|
G|-5-5-5-5-------------------------------------------|
D|-5-5-5-5----5-5-5-5----7-7-7-7----3-3----5-5-------|
A|-3-3-3-3----5-5-5-5----7-7-7-7----3-3----5-5-------|
E|------------3-3-3-3----5-5-5-5----1-1----3-3-------|

E|---------------------------------------------------|
B|---------------------------------------------------|
G|-12---------7----------9----------10-10--12--12----|
D|-X----------X----------X----------X--X---X---X-----|                        
A|-10---------5----------7----------8--8---10--10----|
E|---------------------------------------------------|

   C5    G5
oh yeeeeaaaah
F5
We all need something to live for 
    C5   G5
oh yeeeeaaaah
F5           A5          G5
We all need something to live for

E|-----------------------|
B|-----------------------|
G|-9----7----10-----12---|
D|-X----X----X------X----|
A|-7----5----8------10---|
E|-----------------------|

E|--------------------------|
B|--------------------------|
G|-9----7----10---9-9--7-7--|
D|-X----X----X----X-X--X-X--|
A|-7----5----8----7-7--5-5--|
E|--------------------------|

She said I let her down, let her down
I no longer dream of anything anymore
Said I'm a know-it-all, know-it-all
You make me want to scream
And threw herself on the floor

( C5  G5  A5  G5 )

E|-------------------3------3---------------------------------|
B|-----5------5--------------------5------5------3-------3----|
G|-5-5----5-5----5-5----5-5----5-5----5-5----5-5----5-5-------| 2x
D|------------------------------------------------------------|
A|------------------------------------------------------------|
E|------------------------------------------------------------|

      A5  G5      F5
She's antisocial, antisocial
      A5  G5    F5
She's an  angel YEAHH!!!

E|-15-15-15---13-13-13---12-12-12--------------12-12-------------|
B|----------------------------------15-15-15-----------13-13-----|
G|---------------------------------------------------------------|
D|---------------------------------------------------------------|
A|---------------------------------------------------------------|
E|---------------------------------------------------------------|

[Refrão]

I'm in deep with this girl but she's out of her mind
She said: Babe, I'm sorry but I'm crazy tonight

    C5         G5         A5         F5   G5
E|---------------------------------------------------|
B|---------------------------------------------------|
G|-5-5-5-5-------------------------------------------|
D|-5-5-5-5----5-5-5-5----7-7-7-7----3-3----5-5-------| 2x
A|-3-3-3-3----5-5-5-5----7-7-7-7----3-3----5-5-------|
E|------------3-3-3-3----5-5-5-5----1-1----3-3-------|

E|---------------------------------------------------|
B|---------------------------------------------------|
G|-12---------7----------9----------10-10--12--12----|
D|-X----------X----------X----------X--X---X---X-----|                
A|-10---------5----------7----------8--8---10--10----|
E|---------------------------------------------------|

She got a black shirt, black skirt
And Bauhaus stuck in her head

    F5          G5          E/G#       A5  G5
E|--------------------------------------------------|
B|--------------------------------------------------|
G|--------------------------------------------------|
D|-3-| X-3-3-----5-X-5-5-----6-6-6-6----7-7-5-5-------|
A|-3-| X-3-3-----5-X-5-5-----7-7-7-7----7-7-5-5-------|
E|-1-| X-1-1-----3-X-3-3-----4-4-4-4----5-5-3-3-------|

E|--------------------------------------------------|
B|--------------------------------------------------|
G|-5--5-5------7--7-7------9-9-9-9-9-9-9--7-7-------|
D|-x--x-x------x--x-x------x-x-x-x-x-x-x--x-x-------|
A|-3--3-3------5--5-5------7-7-7-7-7-7-7--5-5-------|
E|--------------------------------------------------|

I'm in deep with this girl but she's out of her mind
   
    C5         G5         A5         F5   G5
E|---------------------------------------------------|
B|---------------------------------------------------|
G|-5-5-5-5-------------------------------------------|
D|-5-5-5-5----5-5-5-5----7-7-7-7----3-3----5-5-------|
A|-3-3-3-3----5-5-5-5----7-7-7-7----3-3----5-5-------|
E|------------3-3-3-3----5-5-5-5----1-1----3-3-------|

E|---------------------------------------------------|
B|---------------------------------------------------|
G|-12---------7----------9----------10-10--12--12----|
D|-X----------X----------X----------X--X---X---X-----|                          
A|-10---------5----------7----------8--8---10--10----|
E|---------------------------------------------------|

She's not complicated
Can't be overstated at all
She's not complicated-ated-ated at all

( C5  G5  A5  G5 )
( C5  G5  A5  G5 )
( C5  G5  A5  G5 )
( C5  G5  A5  G5 )


E|-12---------12--------13-12--------------|
B|----15-13------15-13--------15-13--------|
G|-----------------------------------------| 2X
D|-----------------------------------------|
A|-----------------------------------------|
E|-----------------------------------------|

E|-----------------------------------------|
B|-8~~~~~~---8-6~~~~~~6--------------------|
G|-----------------------------------------| 2X
D|-----------------------------------------|
A|-----------------------------------------|
E|-----------------------------------------|

[Refrão]

I'm in deep with this girl but she's out of her mind
She said: Babe, I'm sorry but I'm crazy tonight
   
    C5                    A5         F5   G5
E|--------------------------------------------------------|
B|--------------------------------------------------------|
G|-5-5-5-5------------------------------------------------|
D|-5-5-5-5---------------7-7-7-7----3-3----5-5------------|
A|-3-3-3-3---------------7-7-7-7----3-3----5-5------------|
E|-----------------------5-5-5-5----1-1----3-3------------|

    C5         G5         A5         F5   G5
E|--------------------------------------------------------|
B|--------------------------------------------------------|
G|-5-5-5-5------------------------------------------------|
D|-5-5-5-5----5-5-5-5----7-7-7-7----3-3----5-5------------|
A|-3-3-3-3----5-5-5-5----7-7-7-7----3-3----5-5------------|
E|------------3-3-3-3----5-5-5-5----1-1----3-3------------|

E|---------------------------------------------------|
B|---------------------------------------------------|
G|-12---------7----------9----------10-10--12--12----|
D|-X----------X----------X----------X--X---X---X-----|                       
A|-10---------5----------7----------8--8---10--10----|
E|---------------------------------------------------|

She got a black shirt, black skirt
And Bauhaus stuck in her head

    F5          G5          E/G#       A5  G5
E|--------------------------------------------------|
B|--------------------------------------------------|
G|--------------------------------------------------|
D|-3--| X-3-3-----5-X-5-5-----6-6-6-6----7-7-5-5------|
A|-3--| X-3-3-----5-X-5-5-----7-7-7-7----7-7-5-5------|
E|-1--| X-1-1-----3-X-3-3-----4-4-4-4----5-5-3-3------|

(Guitar 02)

E|--------------------------------------------------|
B|--------------------------------------------------|
G|-5--5-5------7--7-7------9-9-9-9-9-9-9--7-7-------|
D|-x--x-x------x--x-x------x-x-x-x-x-x-x--x-x-------|
A|-3--3-3------5--5-5------7-7-7-7-7-7-7--5-5-------|
E|--------------------------------------------------|

I'm in deep with this girl but she's out of her mind
   
    C5         G5         A5         F5   G5
E|---------------------------------------------------|
B|---------------------------------------------------|
G|-5-5-5-5-------------------------------------------|
D|-5-5-5-5----5-5-5-5----7-7-7-7----3-3----5-5-------|
A|-3-3-3-3----5-5-5-5----7-7-7-7----3-3----5-5-------|
E|------------3-3-3-3----5-5-5-5----1-1----3-3-------|


   GUITAR 02

E|---------------------------------------------------|
B|---------------------------------------------------|
G|-12---------7----------9----------10-10--12--12----|
D|-X----------X----------X----------X--X---X---X-----|                          
A|-10---------5----------7----------8--8---10--10----|
E|---------------------------------------------------|

   C5    G5
oh yeeeeaaaah
F5
We all need something to live for 
    C5   G5
oh yeeeeaaaah
F5           A5          G5         C5
We all need something to live for

E|-8-8-8---------------------------------------|
B|---------8-8-8---6-6-6---5-5-5---------5-5---|
G|---------------------------------7-7---------|
D|---------------------------------------------|
A|---------------------------------------------|
E|---------------------------------------------|

E|-8-8-8---------------------------------------|
B|---------8-8-8---6-6-6---5-5-5---------------|
G|---------------------------------7-7---5-5---|
D|---------------------------------------------|
A|---------------------------------------------|
E|---------------------------------------------|

E|-8-8-8---------------------------------------|
B|---------8-8-8---6-6-6-6----8-8--------------|
G|-----------------------------------5---------|
D|-----------------------------------| X---------|
A|-----------------------------------3---------|
E|---------------------------------------------|

E|-8-8-8---------------------------------------|
B|---------8-8-8---6-6-6---5-5-5---------5-5---|
G|---------------------------------7-7---------|
D|---------------------------------------------|
A|---------------------------------------------|
E|---------------------------------------------|

Clipes