busca

Snake Charmer

blink-182

Tom: A
Intro 8x:
E|---------------------------------------------------------------------------|
B|---------------------------------------------------------------------------|
G|---------------------------------------------------------------------------|
D|---------------------------------------------------------------------------|
A|---4~~~~-5~~~~-7~~~~-----------4~~~~-5~~~~-0~~~~---------------------------|
E|---------------------------------------------------------------------------|

E|---------------------------------------------------------------------------|
B|---------------------------------------------------------------------------|
G|---------------------------------------------------------------------------|
D|---11-11--7-7--7-7~-7-7--7-7--6-6------------------------------------------|
A|---11-11--7-7--7-7~-7-7--7-7--6-6------------------------------------------|
E|---9--9---5-5--5-5~-5-5--5-5--4-4------------------------------------------|

Parte do Piano durante o verso:
E|--17---12-13--15--13-12-12------9--10--------------------------------------|
B|--------------------------------------10-----------------------------------|
G|---------------------------------------------------------------------------|  (2x)
D|---------------------------------------------------------------------------|
A|---------------------------------------------------------------------------|
E|---------------------------------------------------------------------------|

A                     Dm
I felt a stutter at a waiver
               A
cutting like a razor
                      Dm
Like fire through the snow
                          A
then straight down to the bone

                     Dm
She creeps up like a spider
                   A
and wants you deep inside her
                   Dm
She turns you into stone
                 A
A twisted little show
Segunda guitarra/baixo toca durante o refrão:
E|---------------------------------------------------------------------------|
B|---------------------------------------------------------------------------|
G|---------------------------------------------------------------------------|
D|----7--------6---------4----------2----------------------------------------|  (4x)
A|----7--------7---------4----------2----------------------------------------|
E|----5--------4---------2----------0----------------------------------------|

A                  C#     A
Last night, it was to all begin
                            C#      A
cause good girls, they like to sin
                C#       A
way back at the starting line
                  C#   A
when Eve was on Adam's mind
                     C#     A
And he was the first to go
                       C#       A
in search of the great unknown
                 C#    A
And falling yet again
A
Cause good girls, they like to sin

( A )
E|---------------------------------------------------------------------------|
B|---------------------------------------------------------------------------|
G|---------------------------------------------------------------------------|  (4x)
D|---11-11--7-7--7-7~-7-7--7-7--6-6------------------------------------------|
A|---11-11--7-7--7-7~-7-7--7-7--6-6------------------------------------------|
E|---9--9---5-5--5-5~-5-5--5-5--4-4------------------------------------------|

E|--17---12-13--15--13-12-12------9--10--------------------------------------|
B|--------------------------------------10-----------------------------------|
G|---------------------------------------------------------------------------|  (2x)
D|---------------------------------------------------------------------------|
A|---------------------------------------------------------------------------|
E|---------------------------------------------------------------------------|

A                     Dm
You are a hero and survivor,
                      A
your eyes are getting tired
                          Dm
There's clawmarks up your spine,
                   A
it happens all the time

                 Dm
The silent, evil daughters
                   A
like sirens on the water
                        Dm
You've been the perfect crime
                   A
It happens all the time
E|---------------------------------------------------------------------------|
B|---------------------------------------------------------------------------|
G|---------------------------------------------------------------------------|
D|----7--------6---------4----------2----------------------------------------|
A|----7--------7---------4----------2----------------------------------------|
E|----5--------4---------2----------0----------------------------------------|

A                  C#     A
Last night, it was to all begin
                            C#      A
cause good girls, they like to sin
                C#       A
way back at the starting line
                  C#   A
when Eve was on Adam's mind
                     C#     A
And he was the first to go
                       C#       A
in search of the great unknown
                 C#    A
And falling yet again
A
Cause good girls, they like to sin
Ponte:
E|---------------------------------------------------------------------------|
B|---------------------------------------------------------------------------|
G|--------------------------------------------7-------6----------------------|  (2x)
D|----7--------6----------4---------2---------7-------7----------------------|
A|----7--------7----------4---------2---------5-x12---4-x4-------------------|
E|----5-x12----4-x4-------2-x12-----0-x4-------------------------------------|

E|---------------------------------------------------------------------------|
B|---------------------------------------------------------------------------|
G|---------------------------------------------------------------------------|
D|----7--------6---------4----------2----------------------------------------|
A|----7--------7---------4----------2----------------------------------------|
E|----5--------4---------2----------0----------------------------------------|

A                  C#     A
Last night, it was to all begin
                            C#      A
cause good girls, they like to sin
                C#       A
way back at the starting line
                  C#   A
when Eve was on Adam's mind
                     C#     A
And he was the first to go
                       C#       A
in search of the great unknown
                 C#    A
And falling yet again
A
Cause good girls, they like to sin
E|---------------------------------------------------------------------------|
B|---------------------------------------------------------------------------|
G|---------------------------------------------------------------------------|
D|---------------------------------------------------------------------------|
A|---4~~~~-5~~~~-7~~~~-----------4~~~~-5~~~~-0~~~~---------------------------|
E|---------------------------------------------------------------------------|

E|--17---12-13--15--13-12-12------9--10--------------------------------------|
B|--------------------------------------10\----------------------------------|
G|---------------------------------------------------------------------------|  (2x)
D|---------------------------------------------------------------------------|
A|---------------------------------------------------------------------------|
E|---------------------------------------------------------------------------|

Clipes