busca

Stay Together For The Kids

Blink-182

Tom: D
Intro:
E|------------------|-------------------|-------------------|-----------------------|
B|------------------|-------------------|-------------------|-----------------------|
G|------------------|-------------------|-------------------|-----------------------|   (2x)
D|--0---7--0---4--0-|--0---7--0---4--0--|--0---4---------1--|--2----4--5--4--2--0---|
A|5---5------5------|4---4------4-------|2---2----2--2------|0----------------------|
E|------------------|-------------------|-------------------|-----------------------|

Riff 1:
E|--------------------------------|------------------------------|
B|--------------------------------|------------------------------|
G|--------------------------------|------------------------------|
D|------7-----7------7------7-----|------7------7------7-----7---|
A|--5-5-----5----5-5------5-------|--4-4------4----4-4-----4-----|
E|--------------------------------|------------------------------|

E|--------------------------------|------------------------------|
B|--------------------------------|------------------------------|
G|--------------------------------|------------------------------|
D|------7-----7------7------7-----|------7------7------7-----7---|
A|--------------------------------|------------------------------|
E|--7-7-----7----7-7------7-------|--5-5------5----5-5------5----|

(Toca o Riff 1 ate começar o refrão)

(Riff 1)
Its hard to wake up
when the shades have been pulled shut
This house is haunted
its so pathetic
it makes no sense at all
I'm ripe with things to say
the words rot and fall away
What stupid poem could fix this home
I'd read it every day
Refrão:
E|-----------------------------------------------------------------------|
B|-----------------------------------------------------------------------|
G|-----------------------------------------------------------------------|   (4x)
D|-0-0-0-0-0-0-0-0-0-0-0-0-0-0-0-0-----0-0-0-0-0-0-0-0-0-0-0-0-0-0-0-0---|
A|-5-5-5-5-5-5-5-5-5-5-5-5-5-5-5-5-----5-5-5-5-5-5-5-5-5-5-5-5-5-5-5-5---|
E|-3-3-3-3-3-3-3-3-3-3-3-3-3-3-3-3--0--2-2-2-2-2-2-2-2-2-2-2-2-2-2-2-2---|

G5                   F#5
So here`s your holiday
         G5
Hope you, enjoy it this time
                  F#5
You gave it all away
          G5
It was mine
                         F#5
So when you`re dead and gone
         G5
Will you, remember this night, twenty years
     F#5
now lost

It`s not right

The anger hurts my ears
been running strong for seven years
Rather then fix the problem
they never solve them
it makes no sense at all
I see them everyday
we get along so why can't they?
If this is what he wants
and its what she wants
then why's there so much pain?

Refrão:
G5                   F#5
So here`s your holiday
         G5
Hope you, enjoy it this time
                  F#5
You gave it all away
          G5
It was mine
                         F#5
So when you`re dead and gone
         G5
Will you, remember this night, twenty years
     F#5
now lost

It`s not right
Interludio:
E|------------------------|
B|------------------------|
G|-7~----------7~---9~----|
D|-7~----------7~---9-----|
A|-5~----------5~---7-----|
E|------------------------|

G5                   F#5
So here`s your holiday
         G5
Hope you, enjoy it this time
                  F#5
You gave it all away
          G5
It was mine
                         F#5
So when you`re dead and gone
         G5
Will you, remember this night, twenty years
     F#5
now lost

It`s not right
E|--------------------------------------------------------------------|
B|--------------------------------------------------------------------|
G|--------------------------------------------------------------------|
D|-0-0-0-0-0-0-0-0-0-0-0-0-0-0-0-0--0-0-0-0-0-0-0-0-0-0-0-0-0-0-0-0---|
A|-5-5-5-5-5-5-5-5-5-5-5-5-5-5-5-5--5-5-5-5-5-5-5-5-5-5-5-5-5-5-5-5---|
E|-3-3-3-3-3-3-3-3-3-3-3-3-3-3-3-3--2-2-2-2-2-2-2-2-2-2-2-2-2-2-2-2---|

E|------|---0-2-------|
B|---3--|-3-----3-----|
G|-2----|-------------|
D|------|-------------|
A|------|-------------|
E|------|-------------|

Clipes

Cifra Club Pro

Aproveite o Cifra Club com benefícios exclusivos e sem anúncios
Cifra Club Pro
Aproveite o Cifra Club com benefícios exclusivos e sem anúncios