busca

Stay Together For The Kids

Blink-182

(refrão)
G----------------------------------
D----------------------------------
A----------------------------------
E--3-3-3-3-3-3-3-3-3-3-3-3-3-3-3-3-
                                       4x
G----------------------------------
D----------------------------------
A----------------------------------
E--2-2-2-2-2-2-2-2-2-2-2-2-2-2-0-2-

(sai do refrão toqeu esta nota e deixe soar até o quando a voz entra)
G----------------
D----------------
A--5-------------
E----------------

(refrão 4x)

(interlude - acompanha o solo do Tom)

G----------------------------------
D----------------------------------
A--5-5-5-5-5-5-5-5-----------------
E------------------5-5-5-5-5-5-5-5-
                                        4x
G----------------------------------
D----------------------------------
A----------------------------------
E--3-3-3-3-3-3-3-3-5-5-5-5-5-5-5-5-

(depois repita o refrão até o final da musica.
Pra facilitar a ordem é assim)

(refrão 4x(
(verso não tem baixo)
(refrão 4x)
(interlude 4x - solo da guitarra)
(refrão  Até o final da musica)

Clipes

Cifra Club Pro

Aproveite o Cifra Club com benefícios exclusivos e sem anúncios
Cifra Club Pro
Aproveite o Cifra Club com benefícios exclusivos e sem anúncios