Stockholm Syndrome

Blink-182

Tom: G
#1t1#
                                          
Intro - GUITARRA 1          
#1t2#e|-----------------------------|   
b|-----------------------------|   
g|---------5555----------------|   o final da intro termina em C
d|--2222---5555---5555---7777--|   
a|--2222---3333---5555---7777--|   
e|--0000----------3333---5555--| x2 #/1t2##/1t1#



#2t1#Intro - Guitarra 2(solo)
#2t2#e|-10----------|------------7---|--------------|
b|----8-8-8-12-|---8-8-8--------|--8-8-8-8-12--|
g|-------------|----------7-----|--------------|
d|-------------|----------------|--------------|
a|----uma vez--|----tres vezes--|--Uma vez-----|
e|-------------|----------------|--------------|#/2t2##/2t1#
   
#3t1# verso 1
#3t2# E-C-G-A-F# x2  E#/3t2##/3t1#

 Brigde

#4t1# guitar 2 (na musica e no piano)
#4t2#e|---3-5-7-3-3-2--|
b|----------------|
g|----------------|
d|----------------|
a|----------------|
e|----------------|#/4t2##/4t1#

 Guitar 1

#5t1##5t2#e|---------------------------------------------------------------------------------|
b|---------------------------------------------------------------------------------|
g|---------------------------------------------------------------------------------|
d|-5-5-5-5-5-4-4-4-5-5-5-5-5-5-5-7-5-7-9-5-5-4-------5-5-5-5-5-4-4-4-5-5-5-5-5-5-5-|
a|-x-x-x-x-x-x-x-x-x-x-x-x-x-x-x-x-x-x-x-x-x-x---x2--x-x-x-x-x-x-x-x-x-x-x-x-x-x-x-|
e|-3-3-3-3-3-2-2-2-3-3-3-3-3-3-3-5-3-5-7-3-3-2-------3-3-3-3-3-2-2-2-3-3-3-3-3-3-3-|#/5t2##/5t1#


 palm muted

#6t1#Guitar 1
#6t2#e|--------------------------------------------------------------------|
b|--------------------------------------------------------------------|
g|--------------------------------------------------------------------|
d|-4-4-4-4-4-4-4-4-4-4-4-4-4-5-5-4-4-5-5-5-5-5-5-5-5-5-5-5-5-5-5-5----|
a|-2-2-2-2-2-2-2-2-2-2-2-2-2-3-3-2-2-3-3-3-3-3-3-3-3-3-3-3-3-3-3-3----|
e|--------------------------------------------------------------------|#/6t2##/6t1#
#7t1# Palm muted
#7t2#e|------------------------------------------------------------------------------------|
b|------------------------------------------------------------------------------------|
g|------------------------------------------------------------------------------------|
d|--4-4-4-4-4-4-4-4-4-4-4-4-4-4-4-4-2-2-2-2-2-2-2-2------------------4-4-4-4-4-4-4-4--|
a|--2-2-2-2-2-2-2-2-2-2-2-2-2-2-2-2-0-0-0-0-0-0-0-0-5-5-5-5-5-5-5-5--2-2-2-2-2-2-2-2--|
e|--------------------------------------------------3-3-3-3-3-3-3-3--*entra guitar 2--|#/7t2##/7t1#
#8t1# Palm muted
#8t2#e|-------------------------------------------------------------------------------------|
b|-------------------------------------------------------------------------------------|
g|-------------------------------------------------------------------------------------|
d|-4-4-4-4-4-5-5-4-4-5-5-5-5-5-5-5-5-5-5-5-5-5-5-5-4-4-4-4-4-4-4-4-4-4-4-4-4-4-4-4-----|
a|-2-2-2-2-2-3-3-2-2-3-3-3-3-3-3-3-3-3-3-3-3-3-3-3-2-2-2-2-2-2-2-2-2-2-2-2-2-2-2-2-----|
e|-------------------------------------------------------------------------------------|#/8t2##/8t1#
#9t1# palm muted
#9t2#E|-------------------------------------------------------------------------------------------------|
b|-------------------------------------------------------------------------------------------------|
g|-------------------------------------------------------------------------------------------------|
d|-2-2-2-2-2-2-2-2-----------------4-4-4-4-4-4-4-4-4-4-4-4-4-5-5-4-4-5-5-5-5-5-5-5-5-5-5-5-5-5-5-5-|
a|-0-0-0-0-0-0-0-0-5-5-5-5-5-5-5-5-2-2-2-2-2-2-2-2-2-2-2-2-2-3-3-2-2-3-3-3-3-3-3-3-3-3-3-3-3-3-3-3-|
e|-----------------3-3-3-3-3-3-3-3-----------------------------------------------------------------|#/9t2##/9t1#
#10t1#palm muted
#10t2#e|---------------------------------|
b|---------------------------------|
g|---------------------------------|
d|-4-4-4-4-4-4-4-4-4-4-4-4-4-4-4-4-|
a|-2-2-2-2-2-2-2-2-2-2-2-2-2-2-2-2-|
e|---------------------------------|#/10t2##/10t1#

#11t1#Guitar 2(brigde)
#11t2#e|-----------------------------------------------------------------------------|
b|-----------------------------------------------------------------------------|
g|-----14-12-----11--12------14-12--11-12----14-12---14-11--14-11-12--14-11-12-|
d|--12--------12----------12--------------12-----------------------------------|
a|-----------------------------------------------------------------------------|
e|-----------------------------------------------------------------------------|#/11t2##/11t1#


Guitar 1(depois do brigde)

#12t1##12t2#B-C-B-A-G-E x2#/12t2##/12t1#

verso 1
Composição: Colaboração e revisão: diego sousa