busca

Stockholm Syndrome

Blink-182

Tom: E
                                          
Intro - GUITARRA 1          
e|-----------------------------|   
b|-----------------------------|   

g|---------5555----------------|   o final da intro termina em C
d|--2222---5555---5555---7777--|   
a|--2222---3333---5555---7777--|   
e|--0000----------3333---5555--| x2 



Intro - Guitarra 2(solo)
e|-10----------|------------7---|--------------|
b|----8-8-8-12-|---8-8-8--------|--8-8-8-8-12--|
g|-------------|----------7-----|--------------|
d|-------------|----------------|--------------|
a|----uma vez--|----tres vezes--|--Uma vez-----|
e|-------------|----------------|--------------|
   
 verso 1
 E-C-G-A-F# x2  E

 Brigde

 guitar 2 (na musica e no piano)
e|---3-5-7-3-3-2--|
b|----------------|
g|----------------|
d|----------------|
a|----------------|
e|----------------|

 Guitar 1

e|---------------------------------------------------------------------------------|
b|---------------------------------------------------------------------------------|
g|---------------------------------------------------------------------------------|
d|-5-5-5-5-5-4-4-4-5-5-5-5-5-5-5-7-5-7-9-5-5-4-------5-5-5-5-5-4-4-4-5-5-5-5-5-5-5-|
a|-x-x-x-x-x-x-x-x-x-x-x-x-x-x-x-x-x-x-x-x-x-x---x2--x-x-x-x-x-x-x-x-x-x-x-x-x-x-x-|
e|-3-3-3-3-3-2-2-2-3-3-3-3-3-3-3-5-3-5-7-3-3-2-------3-3-3-3-3-2-2-2-3-3-3-3-3-3-3-|


 palm muted

Guitar 1
e|--------------------------------------------------------------------|
b|--------------------------------------------------------------------|
g|--------------------------------------------------------------------|
d|-4-4-4-4-4-4-4-4-4-4-4-4-4-5-5-4-4-5-5-5-5-5-5-5-5-5-5-5-5-5-5-5----|
a|-2-2-2-2-2-2-2-2-2-2-2-2-2-3-3-2-2-3-3-3-3-3-3-3-3-3-3-3-3-3-3-3----|
e|--------------------------------------------------------------------|
 Palm muted
e|------------------------------------------------------------------------------------|
b|------------------------------------------------------------------------------------|
g|------------------------------------------------------------------------------------|
d|--4-4-4-4-4-4-4-4-4-4-4-4-4-4-4-4-2-2-2-2-2-2-2-2------------------4-4-4-4-4-4-4-4--|
a|--2-2-2-2-2-2-2-2-2-2-2-2-2-2-2-2-0-0-0-0-0-0-0-0-5-5-5-5-5-5-5-5--2-2-2-2-2-2-2-2--|
e|--------------------------------------------------3-3-3-3-3-3-3-3--*entra guitar 2--|
 Palm muted
e|-------------------------------------------------------------------------------------|
b|-------------------------------------------------------------------------------------|
g|-------------------------------------------------------------------------------------|
d|-4-4-4-4-4-5-5-4-4-5-5-5-5-5-5-5-5-5-5-5-5-5-5-5-4-4-4-4-4-4-4-4-4-4-4-4-4-4-4-4-----|
a|-2-2-2-2-2-3-3-2-2-3-3-3-3-3-3-3-3-3-3-3-3-3-3-3-2-2-2-2-2-2-2-2-2-2-2-2-2-2-2-2-----|
e|-------------------------------------------------------------------------------------|
 palm muted
E|-------------------------------------------------------------------------------------------------|
b|-------------------------------------------------------------------------------------------------|
g|-------------------------------------------------------------------------------------------------|
d|-2-2-2-2-2-2-2-2-----------------4-4-4-4-4-4-4-4-4-4-4-4-4-5-5-4-4-5-5-5-5-5-5-5-5-5-5-5-5-5-5-5-|
a|-0-0-0-0-0-0-0-0-5-5-5-5-5-5-5-5-2-2-2-2-2-2-2-2-2-2-2-2-2-3-3-2-2-3-3-3-3-3-3-3-3-3-3-3-3-3-3-3-|
e|-----------------3-3-3-3-3-3-3-3-----------------------------------------------------------------|
palm muted
e|---------------------------------|
b|---------------------------------|
g|---------------------------------|
d|-4-4-4-4-4-4-4-4-4-4-4-4-4-4-4-4-|
a|-2-2-2-2-2-2-2-2-2-2-2-2-2-2-2-2-|
e|---------------------------------|

Guitar 2(brigde)
e|-----------------------------------------------------------------------------|
b|-----------------------------------------------------------------------------|
g|-----14-12-----11--12------14-12--11-12----14-12---14-11--14-11-12--14-11-12-|
d|--12--------12----------12--------------12-----------------------------------|
a|-----------------------------------------------------------------------------|
e|-----------------------------------------------------------------------------|


Guitar 1(depois do brigde)

B-C-B-A-G-E x2

verso 1

Clipes