busca

Story Of A Lonely Guy

blink-182

Tom: A
(intro 2x)

E|----------------------------------------------|
B|-------10-10-10-12-12-12-12-12-12-12-12-12-12-|
G|-9-9-9----------------------------------------|
D|----------------------------------------------|
A|----------------------------------------------|
E|----------------------------------------------|

E|----------------------------------------------|
B|-------10-10-10-12-12-12-10-10-10-10-10-10-10-|
G|-9-9-9----------------------------------------|
D|----------------------------------------------|
A|----------------------------------------------|
E|----------------------------------------------|

(verso 1)
A           B          C#            D             A
 Push it out fake a smile overt disaster just in time
              B            C#              D
I need a drink 'cause in a while worthless answers from friends of mine
A            B              C#            D
 it's dumb to ask cool to ignore girls possess me but are never mine
A          B               C#                 D
 I made my entrance avoided hazards checked my engine I fell behind

(2x)
E|-------------------------------------------------|
B|-------------------------------------------------|
G|-------------------------------------------------|
D|-----7-----7-----7-----7-----7-----7-----9-----9-|
A|-4-4---4-4---5-5---5-5---0-0---0-0---7-7---7-7---|
E|-------------------------------------------------|

Da Da Da Da    Da Da Da Da   I fell behind
Da Da Da Da    Da Da Da Da...

(refrão)
A              E             F#             D
 She makes me feel like it's raining outside
A              E                  F#             D
 and when the storms gone I'm all torn up inside
A           E         F#              D
 I'm always nervous on days like this like the prom
A           E                     F#            D
 I get too scared to move because I'm a ******* boy

(intro 2x)

E|----------------------------------------------|
B|-------10-10-10-12-12-12-12-12-12-12-12-12-12-|
G|-9-9-9----------------------------------------|
D|----------------------------------------------|
A|----------------------------------------------|
E|----------------------------------------------|

E|----------------------------------------------|
B|-------10-10-10-12-12-12-10-10-10-10-10-10-10-|
G|-9-9-9----------------------------------------|
D|----------------------------------------------|
A|----------------------------------------------|
E|----------------------------------------------|

(verso 2)
A             B        C#            D
 Remember when I was in the grocery store now's my time
A              B              C#      D
 lost the words lost the earth lost a girl left the line
A        B            C#            D
 I would wish upon a star but that star it doesn't shine
A           B                    C#             D
 so read my book with the boring ending a sort story of a lonely guy

(2x)
E|-------------------------------------------------|
B|-------------------------------------------------|
G|-------------------------------------------------|
D|-----7-----7-----7-----7-----7-----7-----9-----9-|
A|-4-4---4-4---5-5---5-5---0-0---0-0---7-7---7-7---|
E|-------------------------------------------------|

Da Da Da Da    Da Da Da Da   I fell behind
Da Da Da Da    Da Da Da Da...

(refrão)
A              E             F#             D
 She makes me feel like it's raining outside
A              E                  F#             D
 and when the storms gone I'm all torn up inside
A           E         F#              D
 I'm always nervous on days like this like the prom
A           E                     F#            D
 I get too scared to move because I'm a ******* boy

(pós-refrão 2x)
E|--------------------------------------------------------|
B|--------------------------------------------------------|
G|--------------------------------------------------------|
D|-----7-----7-----7------9-9-9-9-9-9-9-9-9-9-9-9-9-9-9-9-|
A|-4-4---4-4---5-5---5-5--7-7-7-7-7-7-7-7-7-7-7-7-7-7-7-7-|
E|--------------------------------------------------------|

E|-------------------------------------------------|
B|-------------------------------------------------|
G|-------------------------------------------------|
D|-----7-----7-----7-----7-----7-----7-----7-----7-|
A|-4-4---4-4---5-5---5-5---7-7---7-7---7-7---7-7---|
E|-------------------------------------------------|

E|--------------------------|
B|--------------------------|
G|--------------------------|
D|-----7-----7-----7-----7--|
A|-4-4---4-4---5-5---5-5----|
E|--------------------------|

(refrão) A  E  F#  D

Da Da Da Da    Da Da Da Da   I fell behind
Da Da Da Da    Da Da Da Da...

(refrão)
A              E             F#             D
 She makes me feel like it's raining outside
A              E                  F#             D
 and when the storms gone I'm all torn up inside
A           E         F#              D
 I'm always nervous on days like this like the prom
A           E                     F#            D             A
 I get too scared to move because I'm just a stupid worthless boy

Clipes