Strings

Blink-182

Tom: G
Intro 1x - Tocar bem de vagar fazendo um fundo para a bateria e para o baixo.

#1t1##1t2#E|-------------|-------------|-------------|-------------|---------------|
B|-------------|-------------|-------------|-------------|---------------|
G|-------------|-7-----------|-------------|-9-----------|---------------|
D|-5-----------|-7-----------|-7-----------|-9-----------|-5-------------|
A|-5-----------|-5-----------|-7-----------|-7-----------|-5-------------|
E|-3-----------|-------------|-5-----------|-------------|-3-------------|#/1t2##/1t1#

#2t1#2° parte do INTRO x2
#2t2#E|-----------------|-----------------|-----------------|-----------------|
B|-----------------|-----------------|-----------------|-----------------|
G|-7-7-7-7-7-7-7-7-|-----------------|-9-9-9-9-9-9-9-9-|-----------------|
D|-7-7-7-7-7-7-7-7-|-7-7-7-7-7-7-7-7-|-9-9-9-9-9-9-9-9-|-5-5-5-5-5-5-5-5-|
A|-5-5-5-5-5-5-5-5-|-7-7-7-7-7-7-7-7-|-7-7-7-7-7-7-7-7-|-5-5-5-5-5-5-5-5-|
E|-----------------|-5-5-5-5-5-5-5-5-|-----------------|-3-3-3-3-3-3-3-3-|#/2t2##/2t1#


Verso 2 Vezes

"I would do anything and that's what scares me so bad..."

#3t1##3t2#E|-----------------|-----------------|-----------------|-----------------|
B|-----------------|-----------------|-----------------|-----------------|
G|-7---------------|-6---------------|-------7-------7-|-------7-------7-|
D|-----7-----------|-----7-----------|-4--5------4-5---|-4--5------4-5---|
A|-----------------|-----------------|-----------------|-----------------|
E|-----------------|-----------------|-----------------|-----------------|#/3t2##/3t1#

CHORUS 4 vezes

#4t1#"Strings......."
#4t2#E|---------------------|---------------------|
B|---------------------|---------------------|
G|-5--5--5-5-5---5---5-|---------------------|
D|-5--5--5-5-5---5---5-|-3--3--3-3-3---3---3-|
A|-3--3--3-3-3---3---3-|-3--3--3-3-3---3---3-|
E|---------------------|-1--1--1-1-1---1---1-|#/4t2##/4t1#

2° parte do INTRO x2

#5t1##5t2#E|-----------------|-----------------|-----------------|-----------------|
B|-----------------|-----------------|-----------------|-----------------|
G|-7-7-7-7-7-7-7-7-|-----------------|-9-9-9-9-9-9-9-9-|-----------------|
D|-7-7-7-7-7-7-7-7-|-7-7-7-7-7-7-7-7-|-9-9-9-9-9-9-9-9-|-5-5-5-5-5-5-5-5-|
A|-5-5-5-5-5-5-5-5-|-7-7-7-7-7-7-7-7-|-7-7-7-7-7-7-7-7-|-5-5-5-5-5-5-5-5-|
E|-----------------|-5-5-5-5-5-5-5-5-|-----------------|-3-3-3-3-3-3-3-3-|#/5t2##/5t1#

Verso 1x (1 vez)
"don't wanna spend my life without all those special things.."
#6t1##6t2#E|-----------------|-----------------|-----------------|-----------------|
B|-----------------|-----------------|-----------------|-----------------|
G|-7---------------|-6---------------|-------7-------7-|-------7-------7-|
D|-----7-----------|-----7-----------|-4--5------4-5---|-4--5------4-5---|
A|-----------------|-----------------|-----------------|-----------------|
E|-----------------|-----------------|-----------------|-----------------|#/6t2##/6t1#

CHORUS 4 vezes


#7t1#"Strings......."
#7t2#E|---------------------|---------------------|
B|---------------------|---------------------|
G|-5--5--5-5-5---5---5-|---------------------|
D|-5--5--5-5-5---5---5-|-3--3--3-3-3---3---3-|
A|-3--3--3-3-3---3---3-|-3--3--3-3-3---3---3-|
E|---------------------|-1--1--1-1-1---1---1-|#/7t2##/7t1#

#8t1#INTERLUDE x1
#8t2#E|-----------------|-----------------|-----------------|-----------------|
B|-----------------|-----------------|-----------------|-----------------|
G|--5--------------|-----------------|-----------------|-----------------|
D|--5--------------|-----------------|-----------------|-----------------|
A|--3--------------|-----------------|-----------------|-----------------|
E|-----------------|-----------------|-----------------|-----------------|#/8t2##/8t1#

#9t1#SOLO x1
#9t2#E|-----------------|-----------------|-----------------|------------------------|
B|-----------------|-----------------|-----------------|------------------------|
G|-----------------|-----------------|-----------------|------------------------|
D|-----------------|-----------------|-7-7-5-4---------|-5p4-5p4---7-5-4ph5p4---|
A|-5-5-4--5--4-5-7-|-5-5-4--5--4-5-7-|-----------7-5-4-|---------5------------5-|
E|-----------------|-----------------|-----------------|------------------------|#/9t2##/9t1#

#10t1##10t2#E|----------------------------|----------------------------|----------------------------|
B|----------------------------|----------------------------|----------------------------|
G|-7p6--7p6--7p6--9p6-7p6-9p6-|-7p6--7p6--7p6--9p6-7p6-9p6-|-9-9-7-6--------------------|
D|----------------------------|----------------------------|---------7-5-4-5-5-4--------|
A|----------------------------|----------------------------|---------------------7-5-4--|
E|----------------------------|----------------------------|----------------------------|#/10t2##/10t1#

CHORUS 4 vezes


#11t1#"Strings......."
#11t2#E|---------------------|---------------------|
B|---------------------|---------------------|
G|-5--5--5-5-5---5---5-|---------------------|
D|-5--5--5-5-5---5---5-|-3--3--3-3-3---3---3-|
A|-3--3--3-3-3---3---3-|-3--3--3-3-3---3---3-|
E|---------------------|-1--1--1-1-1---1---1-|#/11t2##/11t1#
Composição: Colaboração e revisão: Rodrigo Nunesjuliano viegas