busca

Strings

blink-182

Tom: G
Intro 1x - Tocar bem de vagar fazendo um fundo para a bateria e para o baixo.

E|-------------|-------------|-------------|-------------|---------------|
B|-------------|-------------|-------------|-------------|---------------|
G|-------------|-7-----------|-------------|-9-----------|---------------|
D|-5-----------|-7-----------|-7-----------|-9-----------|-5-------------|
A|-5-----------|-5-----------|-7-----------|-7-----------|-5-------------|
E|-3-----------|-------------|-5-----------|-------------|-3-------------|

2° parte do INTRO x2
E|-----------------|-----------------|-----------------|-----------------|
B|-----------------|-----------------|-----------------|-----------------|
G|-7-7-7-7-7-7-7-7-|-----------------|-9-9-9-9-9-9-9-9-|-----------------|
D|-7-7-7-7-7-7-7-7-|-7-7-7-7-7-7-7-7-|-9-9-9-9-9-9-9-9-|-5-5-5-5-5-5-5-5-|
A|-5-5-5-5-5-5-5-5-|-7-7-7-7-7-7-7-7-|-7-7-7-7-7-7-7-7-|-5-5-5-5-5-5-5-5-|
E|-----------------|-5-5-5-5-5-5-5-5-|-----------------|-3-3-3-3-3-3-3-3-|


Verso 2 Vezes

"I would do anything and that's what scares me so bad..."

E|-----------------|-----------------|-----------------|-----------------|
B|-----------------|-----------------|-----------------|-----------------|
G|-7---------------|-6---------------|-------7-------7-|-------7-------7-|
D|-----7-----------|-----7-----------|-4--5------4-5---|-4--5------4-5---|
A|-----------------|-----------------|-----------------|-----------------|
E|-----------------|-----------------|-----------------|-----------------|

CHORUS 4 vezes

"Strings......."
E|---------------------|---------------------|
B|---------------------|---------------------|
G|-5--5--5-5-5---5---5-|---------------------|
D|-5--5--5-5-5---5---5-|-3--3--3-3-3---3---3-|
A|-3--3--3-3-3---3---3-|-3--3--3-3-3---3---3-|
E|---------------------|-1--1--1-1-1---1---1-|

2° parte do INTRO x2

E|-----------------|-----------------|-----------------|-----------------|
B|-----------------|-----------------|-----------------|-----------------|
G|-7-7-7-7-7-7-7-7-|-----------------|-9-9-9-9-9-9-9-9-|-----------------|
D|-7-7-7-7-7-7-7-7-|-7-7-7-7-7-7-7-7-|-9-9-9-9-9-9-9-9-|-5-5-5-5-5-5-5-5-|
A|-5-5-5-5-5-5-5-5-|-7-7-7-7-7-7-7-7-|-7-7-7-7-7-7-7-7-|-5-5-5-5-5-5-5-5-|
E|-----------------|-5-5-5-5-5-5-5-5-|-----------------|-3-3-3-3-3-3-3-3-|

Verso 1x (1 vez)
"don't wanna spend my life without all those special things.."
E|-----------------|-----------------|-----------------|-----------------|
B|-----------------|-----------------|-----------------|-----------------|
G|-7---------------|-6---------------|-------7-------7-|-------7-------7-|
D|-----7-----------|-----7-----------|-4--5------4-5---|-4--5------4-5---|
A|-----------------|-----------------|-----------------|-----------------|
E|-----------------|-----------------|-----------------|-----------------|

CHORUS 4 vezes


"Strings......."
E|---------------------|---------------------|
B|---------------------|---------------------|
G|-5--5--5-5-5---5---5-|---------------------|
D|-5--5--5-5-5---5---5-|-3--3--3-3-3---3---3-|
A|-3--3--3-3-3---3---3-|-3--3--3-3-3---3---3-|
E|---------------------|-1--1--1-1-1---1---1-|

INTERLUDE x1
E|-----------------|-----------------|-----------------|-----------------|
B|-----------------|-----------------|-----------------|-----------------|
G|--5--------------|-----------------|-----------------|-----------------|
D|--5--------------|-----------------|-----------------|-----------------|
A|--3--------------|-----------------|-----------------|-----------------|
E|-----------------|-----------------|-----------------|-----------------|

SOLO x1
E|-----------------|-----------------|-----------------|------------------------|
B|-----------------|-----------------|-----------------|------------------------|
G|-----------------|-----------------|-----------------|------------------------|
D|-----------------|-----------------|-7-7-5-4---------|-5p4-5p4---7-5-4ph5p4---|
A|-5-5-4--5--4-5-7-|-5-5-4--5--4-5-7-|-----------7-5-4-|---------5------------5-|
E|-----------------|-----------------|-----------------|------------------------|

E|----------------------------|----------------------------|----------------------------|
B|----------------------------|----------------------------|----------------------------|
G|-7p6--7p6--7p6--9p6-7p6-9p6-|-7p6--7p6--7p6--9p6-7p6-9p6-|-9-9-7-6--------------------|
D|----------------------------|----------------------------|---------7-5-4-5-5-4--------|
A|----------------------------|----------------------------|---------------------7-5-4--|
E|----------------------------|----------------------------|----------------------------|

CHORUS 4 vezes


"Strings......."
E|---------------------|---------------------|
B|---------------------|---------------------|
G|-5--5--5-5-5---5---5-|---------------------|
D|-5--5--5-5-5---5---5-|-3--3--3-3-3---3---3-|
A|-3--3--3-3-3---3---3-|-3--3--3-3-3---3---3-|
E|---------------------|-1--1--1-1-1---1---1-|

Clipes