busca

The Fallen Interlude

blink-182

Tom: G
Tabbed by Juliano * 182 - 7ØM - 182 *
for Electric Guitar (STANDARD TUNING)

* Notes: Ever thought Blink 182 would play something like this?

* Notes: Played CLEAN, no distortion!!! Second guitar in the main riff? No, there
         isn't; some delay has been used, and harmonics have been artificially added.

* Notes: For more Blink 182 tabs and Japanese Punk Rock / Pop Guitar and Bass tabs,
         please visit www.TJFweb.com

Intro:
e|-17~-15/19~-----------------|
B|-----------------------17/5-|
G|-------------11h12p11-------|
D|----------------------------|
A|----------------------------|
E|----------------------------|

Main Riff:
e|---------------------|
B|-12-10-7h8----7h8----|
G|-12-11-7h9----7h9----|
D|---------------------|
A|---------------------|
E|---------------------| Repeat x4

End on:
e|-17/7-|
B|------|
G|------|
D|------|
A|------|
E|------|

Really want to play the keyboard part? Downstroke this:
e|--12--|
B|--12--|
G|--12--|
D|------|
A|------|
E|------|

Lyrics:
Down down down, pick me up I'm falling...
Down down down, pick me up I'm falling...
Down down down, pick me up I'm falling...
Down down down, pick me up I'm falling...

Clipes