busca

The Girl Next Door

blink-182

Tom: C
Ouça a música para pegar a batida certa! E prestem atenção nos comentários, 
eles são muito importantes p/ tocar a música direito. Valeu!

Intro
        G          B           E          C
e|---------------------------------------------------
B|---------------------------------------------------
G|-----------------4-4-4-4-4--------------5-5-5-5-5-- (2x)
D|------5-5-5-5-5--4-4-4-4-4---2-2-2-2-2--5-5-5-5-5--
A|------5-5-5-5-5--2-2-2-2-2---2-2-2-2-2--3-3-3-3-3--
E|------3-3-3-3-3--------------0-0-0-0-0-------------

Solo

e|------------------------------------------------------
B|------------------------------------------------------
G|------------------------------------------------------ (4x)
D|------------------------------------------------------
A|------0--2--3-2-0----0---5-5-5-5-5-5------------------
E|--3---------------3---------------------------------

VersoI
        G        B        E        C
e|-------------------------------------------
B|-------------------------------------------
G|---------------4-4-4-4-----------*5-5-5-5*- (2x)
D|------5-5-5-5--4-4-4-4--2-2-2-2--*5-5-5-5*-
A|------5-5-5-5--2-2-2-2--2-2-2-2--*3-3-3-3*-
E|------3-3-3-3-----------0-0-0-0------------

Refrão
        G       B       E       C
e|-------------------------------------
B|-------------------------------------
G|--------------4-4-4-----------5-5-5--(4x)
D|------5-5-5---4-4-4---2-2-2---5-5-5--
A|------5-5-5---2-2-2---2-2-2---3-3-3--
E|------3-3-3-----------0-0-0----------

(Ai repete o versoI e o refrão)

VersoII
Toca as notas uma vez solta e o resto abafada, menos o C que é tocado 
igual ao do outro verso!
        G        B        E        C
e|-------------------------------------------
B|-------------------------------------------
G|---------------4-4-4-4-----------*5-5-5-5*-
D|------5-5-5-5--4-4-4-4--2-2-2-2--*5-5-5-5*-
A|------5-5-5-5--2-2-2-2--2-2-2-2--*3-3-3-3*-
E|------3-3-3-3-----------0-0-0-0------------

Toca esse verso uma vez e depois toca o VersoI mais uma vez!
Ai repete o solo 4x e toca o refrão de novo!
A múica termina com uma pequena diferença assim...
        G       B       E       C      B      C
e|----------------------------------------------------
B|----------------------------------------------------
G|--------------4-4-4-----------5-5-5--4-4-4----------
D|------5-5-5---4-4-4---2-2-2---5-5-5--4-4-4--5-5-5---
A|------5-5-5---2-2-2---2-2-2---3-3-3--2-2-2--5-5-5---
E|------3-3-3-----------0-0-0-----------------3-3-3---


É isso ai! Muito Blink e SK8 na veia!
Falow!


Tirado por
Heitor de Araujo Martins 

Clipes