The Only Thing That Matters

Blink-182

A5
12
X022XX
B5
134
X244XX
C#5
134
X466XX
D5
134
X577XX
Tom: G
[Intro]

A5 / D5 / B5 / D5  (x4)


[Verso 1]

A5 ...
Where the hell did you come from
                           
Outer space or heaven above

Short of breath my long-lost love

I can't believe my eyes
             
Are you for real?


[Verso 2] PALM-MUTE

    A5              D5
My life before was such a mess
        B5             D5
There's no use dwelling on the past
    A5              D5
My broken heart was in a cast
     B5                D5
Then you showed up and it began to heal


[Refrão]

B5                  D5              A5
Because you're the only thing that matters

B5                  D5                A5
Because you're the only thing that's real

B5                  D5              A5
Because you're the only thing I'll never let go

B5                  D5           A5
Because you're the only thing I feel



[Interlúdio]

   A5

#1t1##1t2#E|-----------------------------------------|
B|-----------------------------------------|
G|-----------------------------------------|
D|-----------------------------------------|
A|-7-7-7-7-7-7-7-7-7-7-7-7-7-7-7-7-7-7-7-7-|
E|-5-5-5-5-5-5-5-5-5-5-5-5-5-5-5-5-5-5-5-5-|#/1t2##/1t1#
   
   P.M ....................................

#2t1#   C#5       D5
#2t2#E|-----------------------------------------|
B|-----------------------------------------|
G|-6-6------7-7-7-7-7-7-7-7----------------|
D|-6-6------7-7-7-7-7-7-7-7----------------|
A|-4-4------5-5-5-5-5-5-5-5----------------|
E|-----------------------------------------|#/2t2##/2t1#


[Verso 3]


Someday you'll come back to me
     
And I'll say something bitterly
     A5
And you'll go racing toward the kitchen
C#5           D5
Grab a knife erase my vision
A5
Take may flatscreen television
C#5              D5
And my paintings by Marilyn Manson



[Refrão]

B5                  D5              A5
Because you're the only thing that matters

B5                  D5              A5
Because you're the only thing that's real

B5                  D5              A5
Because you're the only thing I'll never let go

B5                  D5              A5
Because you're the only thing I feel


[ Guitarra 2 Refrão ] 4X

#3t1##3t2#E|--------------------------|
B|--------------------------|
G|-7-----11----14-----------|
D|-X-----X-----X------------|
A|-5-----9-----12-----------|
E|--------------------------|#/3t2##/3t1#



[Instrumental]

#4t1##4t2#E|--5-------------------5------------------|
B|-----------------------------------------|
G|-----6-----7--6----------6-----7--6------|
D|--------7-------7-----------7-------7----|
A|-----------------------------------------|
E|-----------------------------------------|#/4t2##/4t1#


#5t1##5t2#E|--5-------------------5------------------|
B|-----------------------------------------|
G|-----6-----7--6----------6-----9--7--6---|
D|--------7-------7-----------7------------|
A|-----------------------------------------|
E|-----------------------------------------|#/5t2##/5t1#



[Refrão]

B5                  D5              A5
Because you're the only thing that matters

B5                  D5              A5
Because you're the only thing that's real

B5                  D5              A5
Because you're the only thing I'll never let go

B5                  D5              A5
Because you're the only thing I feel


[ Guitarra 2 Refrão ] 4X

#6t1##6t2#E|--------------------------|
B|--------------------------|
G|-7-----11----14-----------|
D|-X-----X-----X------------|
A|-5-----9-----12-----------|
E|--------------------------|#/6t2##/6t1#



[Final] 8X

#7t1#    A5
#7t2#E|--------------------------|
B|--------------------------|
G|-6----6-6-6-6-7-----------|
D|-7----7-7-7-7-7-----------|
A|--------------------------|
E|--------------------------|#/7t2##/7t1#

   A5
Composição: Mark Hoppus / Travis Barker / Matt SkibaColaboração e revisão: Renan Luiz