busca

The Only Thing That Matters

blink-182

Tom: A
[Intro]

A5 / D5 / B5 / D5  (x4)


[Verso 1]

A5 ...
Where the hell did you come from
                           
Outer space or heaven above

Short of breath my long-lost love

I can't believe my eyes
             
Are you for real?


[Verso 2] PALM-MUTE

    A5              D5
My life before was such a mess
        B5             D5
There's no use dwelling on the past
    A5              D5
My broken heart was in a cast
     B5                D5
Then you showed up and it began to heal


[Refrão]

B5                  D5              A5
Because you're the only thing that matters

B5                  D5                A5
Because you're the only thing that's real

B5                  D5              A5
Because you're the only thing I'll never let go

B5                  D5           A5
Because you're the only thing I feel



[Interlúdio]

   A5

E|-----------------------------------------|
B|-----------------------------------------|
G|-----------------------------------------|
D|-----------------------------------------|
A|-7-7-7-7-7-7-7-7-7-7-7-7-7-7-7-7-7-7-7-7-|
E|-5-5-5-5-5-5-5-5-5-5-5-5-5-5-5-5-5-5-5-5-|
   
   P.M ....................................

   C#5       D5
E|-----------------------------------------|
B|-----------------------------------------|
G|-6-6------7-7-7-7-7-7-7-7----------------|
D|-6-6------7-7-7-7-7-7-7-7----------------|
A|-4-4------5-5-5-5-5-5-5-5----------------|
E|-----------------------------------------|


[Verso 3]


Someday you'll come back to me
     
And I'll say something bitterly
     A5
And you'll go racing toward the kitchen
C#5           D5
Grab a knife erase my vision
A5
Take may flatscreen television
C#5              D5
And my paintings by Marilyn Manson



[Refrão]

B5                  D5              A5
Because you're the only thing that matters

B5                  D5              A5
Because you're the only thing that's real

B5                  D5              A5
Because you're the only thing I'll never let go

B5                  D5              A5
Because you're the only thing I feel


[ Guitarra 2 Refrão ] 4X

E|--------------------------|
B|--------------------------|
G|-7-----11----14-----------|
D|-X-----X-----X------------|
A|-5-----9-----12-----------|
E|--------------------------|



[Instrumental]

E|--5-------------------5------------------|
B|-----------------------------------------|
G|-----6-----7--6----------6-----7--6------|
D|--------7-------7-----------7-------7----|
A|-----------------------------------------|
E|-----------------------------------------|


E|--5-------------------5------------------|
B|-----------------------------------------|
G|-----6-----7--6----------6-----9--7--6---|
D|--------7-------7-----------7------------|
A|-----------------------------------------|
E|-----------------------------------------|



[Refrão]

B5                  D5              A5
Because you're the only thing that matters

B5                  D5              A5
Because you're the only thing that's real

B5                  D5              A5
Because you're the only thing I'll never let go

B5                  D5              A5
Because you're the only thing I feel


[ Guitarra 2 Refrão ] 4X

E|--------------------------|
B|--------------------------|
G|-7-----11----14-----------|
D|-X-----X-----X------------|
A|-5-----9-----12-----------|
E|--------------------------|



[Final] 8X

    A5
E|--------------------------|
B|--------------------------|
G|-6----6-6-6-6-7-----------|
D|-7----7-7-7-7-7-----------|
A|--------------------------|
E|--------------------------|

   A5

Clipes