busca

The Only Thing That Matters

Blink-182

Introdução: 

G|-----------------------------------------------------------------------------|
D|-----------------------------------------------------------------------------| (x2)
A|-0-0-0-0-0-5-5-5-5-5-5-2-2-2-2-2-5-5-5-5-5-0-0-0-0-0-5-5-5-5-5-5--2-2--5-5-5-|
E|-----------------------------------------------------------------------------|

Verso 1:

“Where the hell did you come from?...”

G|---------------------------------------------------------------------------|
D|---------------------------------------------------------------------------| 
A|-0-0-0-0-0-5-5-5-5-5-5-2-2-2-2-2-5-5-5-5-5---------------------------------| (x4)
E|---------------------------------------------------------------------------|

Refrão 1:

“Because you're the only thing that matters...”

G|---------------------------------------------------------------------------|
D|---------------------------------------------------------------------------| (x4)
A|-2-2-2-2-2-5-5-5-5-5-5-0-0-0-0-0-0-0-0-0-0---------------------------------|
E|---------------------------------------------------------------------------|

G|-9-9-6-6-6-6-7-7-6-6-6-6-9-9-6-6-6-6-7-7-6-6-6-6--6-6--7-7-7-7-------------|
D|-7-7-7-7-7-7-7-7-7-7-7-7-7-7-7-7-7-7-7-7-7-7-7-7--6-6--7-7-7-7-------------|
A|---------------------------------------------------------------------------|
E|---------------------------------------------------------------------------|

Verso 2:

“Someday you'll come back to me...”

G|---------------------------------------------------------------------------|
D|---------------------------------------------------------------------------| (x4)
A|-0-0-0-0-0-0-0-0-0-0-0-4-4-4-4-4-5-5-5-5-5-5-------------------------------|
E|---------------------------------------------------------------------------|

Refrão 2:

“Because you're the only thing that matters...”

G|---------------------------------------------------------------------------|
D|---------------------------------------------------------------------------| (x4)
A|-2-2-2-2-2-5-5-5-5-5-5-0-0-0-0-0-0-0-0-0-0---------------------------------|
E|---------------------------------------------------------------------------|

Ponte:

G|-9-9-6-6-6-6-7-7-6-6-6-6-9-9-6-6-6-6-7-7-6-6-6-6--6-6--7-7-7-7-------------|
D|-7-7-7-7-7-7-7-7-7-7-7-7-7-7-7-7-7-7-7-7-7-7-7-7--6-6--7-7-7-7-------------|
A|---------------------------------------------------------------------------|
E|---------------------------------------------------------------------------|

Refrão Final:

“Because you're the only thing that matters...”

G|---------------------------------------------------------------------------|
D|---------------------------------------------------------------------------| (x4)
A|-2-2-2-2-2-5-5-5-5-5-5-0-0-0-0-0-0-0-0-0-0---------------------------------|
E|---------------------------------------------------------------------------|

G|-9-9-6-6-6-6-7-7-6-6-6-6-9-9-6-6-6-6-7-7-6-6-6-6--6-6--7-7-7-7-------------|
D|-7-7-7-7-7-7-7-7-7-7-7-7-7-7-7-7-7-7-7-7-7-7-7-7--6-6--7-7-7-7-------------|
A|---------------------------------------------------------------------------|
E|---------------------------------------------------------------------------|

Final:

G|-6-6-6-7-6-6-6-7-6-6-6-7-6-6-6-7-6~----------------------------------------|
D|-7-7-7-7-7-7-7-7-7-7-7-7-7-7-7-7-7~----------------------------------------|
A|---------------------------------0~----------------------------------------|
E|---------------------------------------------------------------------------|

Clipes

Cifra Club Pro

Aproveite o Cifra Club com benefícios exclusivos e sem anúncios
7 dias grátis
Cifra Club Pro
Aproveite o Cifra Club com benefícios exclusivos e sem anúncios
7 dias grátis