busca

The Party Song

blink-182

Tom: A
--------------------
--------------------
----9-----9---------    Chords for verse ( you can tell when its muted )
-9--9--7--9---------
-9--7--7--7---------
-7-----9------------

---------------------------------------------
---------------------------------------------
--------------------------------------------- ( And then I saw her standing there...)
---------------------------------------------
-9-7-6---7-6---7-6---------------------------
-------7-----7-----7--7-9-7------------------

---------------------
---------------------
---------------------   Chorus(And some girls try to hard)
---9-----------------
---------9-7-6-------
-7---7---------------

Clipes