The Rock Show

Blink-182

Tom: G
e para tocar abafado somente entre as linhas |...|

#1t1#Introdução
#1t2#E|-------------------------|------------------------------------|
B|-------------------------|------------------------------------|
G|-------------------------|------------------------------------|
D|-------2------0----------|---------2-----0--------------------|
A|-0-0-0---0-0----0-0-4-5--|--0--0-0---0-0---0-0-4-5-4-0--------|
E|-------------------------|------------------------------------|#/1t2##/1t1#


#2t1##2t2#    |--Abafado--|
E|------------------|
B|------------------|
G|------------------|
D|-7777777777777777-|
A|-7777777777777777-|
E|-5555555555555555-|#/2t2##/2t1#

#3t1##3t2#      |--Abafado--|   |Abaf.|   |Abaf.|
E|------------------------------------|
B|------------------------------------|
G|------------------7-777777-9-999999-|
D|-7-77777777777777-7-777777-9-999999-| x2
A|-7-77777777777777-5-555555-7-777777-|
E|-5-55555555555555-------------------|#/3t2##/3t1#

#4t1##4t2#E|-------------------------------------------------------|
B|-------------------------------------------------------|
G|-------------------------------------------------------|
D|-------------------------------------------------------| x2
A|-0-0-0-0-7-0-0-5-0-0-4-0-0-0-0-0-0-0-7-0-0-5-0-0-4-7-4-|
E|-------------------------------------------------------|#/4t2##/4t1#

#5t1##5t2#E|-------------------------------|
B|-------------------------------|
G|-------------------------------|
D|-7...........(Espere um pouco)-|
A|-7...........(Espere um pouco)-|
E|-5...........(Espere um pouco)-|#/5t2##/5t1#

#6t1##6t2#E|-------------------|
B|-------------------|
G|---------------7-7-|
D|-7-7-7-XX-4-XX-7-7-| x3
A|-7-7-7-XX-4-XX-5-5-|
E|-5-5-5-XX-2-XX-----|#/6t2##/6t1#

#7t1##7t2#    |----Abafado----|        |-Abaf-|
E|-------------------|    |----------------|
B|-------------------|    |----------------|
G|-99999999-77777777-|    |-55555555-7-----|
D|-99999999-77777777-| x2 |-55555555-7-9-7-|
A|-77777777-55555555-|    |-77777777-5-9-7-|
E|-------------------|    |------------7-5-|#/7t2##/7t1#

#8t1##8t2#E|-------------------------------------------------------|
B|-------------------------------------------------------|
G|-------------------------------------------------------|
D|-------------------------------------------------------| x2
A|-0-0-0-0-7-0-0-5-0-0-4-0-0-0-0-0-0-0-7-0-0-5-0-0-4-7-4-|
E|-------------------------------------------------------|#/8t2##/8t1#

#9t1##9t2#     |----Abafado--|   |Abaf|   |Abaf|
E|------------------------------------|
B|------------------------------------|
G|------------------7-777777-9-999999-|
D|-7-77777777777777-7-777777-9-999999-| x2
A|-7-77777777777777-5-555555-7-777777-|
E|-5-55555555555555-------------------|#/9t2##/9t1#

#10t1##10t2#E|-------------------|
B|-------------------|
G|---------------7-7-|
D|-7-7-7-XX-4-XX-7-7-| x3
A|-7-7-7-XX-4-XX-5-5-|
E|-5-5-5-XX-2-XX-----|#/10t2##/10t1#

#11t1##11t2#    |----Abafado----|        |Abafado|
E|-------------------|    |----------------|
B|-------------------|    |----------------|
G|-99999999-77777777-|    |-55555555-7-----|
D|-99999999-77777777-| x2 |-55555555-7-9-7-|
A|-77777777-55555555-|    |-77777777-5-9-7-|
E|-------------------|    |------------7-5-|#/11t2##/11t1#

#12t1#        [Guitarra 1]
#12t2#E|----------------------------------|
B|-2---2-2-2---2-3-2---2-3-0---0-3--|
G|--2---2-3-2---2-2-2---2-2-1---1-1-|
D|---4-------0-------2-------2------| x 2 [Na 2a vez entra a guitarra 2]
A|----------------------------------|
E|----------------------------------|#/12t2##/12t1#

#13t1#        [Guitarra 2]
#13t2#E|--------------------------------------|
B|--------------------------------------|
G|----------77777777----------9999-7777-|
D|-44444444-77777777-77777777-9999-7777-| [Entra quando a guitarra 1 tocar o solo
A|-44444444-55555555-77777777-7777-5555-|  pela 2a vez]
E|-22222222----------55555555-----------|#/13t2##/13t1#

#14t1##14t2#E|-------------------|
B|-------------------|
G|---------------7-7-|
D|-7-7-7-XX-4-XX-7-7-| x3
A|-7-7-7-XX-4-XX-5-5-|
E|-5-5-5-XX-2-XX-----|#/14t2##/14t1#

#15t1##15t2#    |----Abafado----|        |Abafado|
E|-------------------|    |----------------|
B|-------------------|    |----------------|
G|-99999999-77777777-|    |-55555555-7-----|
D|-99999999-77777777-| x2 |-55555555-7-9-7-|
A|-77777777-55555555-|    |-77777777-5-9-7-|
E|-------------------|    |------------7-5-|#/15t2##/15t1#

#16t1##16t2#E|-------------------------------------------------------|
B|-------------------------------------------------------|
G|-------------------------------------------------------|
D|-------------------------------------------------------| [Tocar ate o final]
A|-0-0-0-0-7-0-0-5-0-0-4-0-0-0-0-0-0-0-7-0-0-5-0-0-4-7-4-|
E|-------------------------------------------------------|#/16t2##/16t1#
Composição: blink-182Colaboração e revisão: Wessley SilvaAndré