busca

The Rock Show

blink-182

Tom: A
e para tocar abafado somente entre as linhas |...|

Introdução
E|-------------------------|------------------------------------|
B|-------------------------|------------------------------------|
G|-------------------------|------------------------------------|
D|-------2------0----------|---------2-----0--------------------|
A|-0-0-0---0-0----0-0-4-5--|--0--0-0---0-0---0-0-4-5-4-0--------|
E|-------------------------|------------------------------------|


    |--Abafado--|
E|------------------|
B|------------------|
G|------------------|
D|-7777777777777777-|
A|-7777777777777777-|
E|-5555555555555555-|

      |--Abafado--|   |Abaf.|   |Abaf.|
E|------------------------------------|
B|------------------------------------|
G|------------------7-777777-9-999999-|
D|-7-77777777777777-7-777777-9-999999-| x2
A|-7-77777777777777-5-555555-7-777777-|
E|-5-55555555555555-------------------|

E|-------------------------------------------------------|
B|-------------------------------------------------------|
G|-------------------------------------------------------|
D|-------------------------------------------------------| x2
A|-0-0-0-0-7-0-0-5-0-0-4-0-0-0-0-0-0-0-7-0-0-5-0-0-4-7-4-|
E|-------------------------------------------------------|

E|-------------------------------|
B|-------------------------------|
G|-------------------------------|
D|-7...........(Espere um pouco)-|
A|-7...........(Espere um pouco)-|
E|-5...........(Espere um pouco)-|

E|-------------------|
B|-------------------|
G|---------------7-7-|
D|-7-7-7-XX-4-XX-7-7-| x3
A|-7-7-7-XX-4-XX-5-5-|
E|-5-5-5-XX-2-XX-----|

    |----Abafado----|        |-Abaf-|
E|-------------------|    |----------------|
B|-------------------|    |----------------|
G|-99999999-77777777-|    |-55555555-7-----|
D|-99999999-77777777-| x2 |-55555555-7-9-7-|
A|-77777777-55555555-|    |-77777777-5-9-7-|
E|-------------------|    |------------7-5-|

E|-------------------------------------------------------|
B|-------------------------------------------------------|
G|-------------------------------------------------------|
D|-------------------------------------------------------| x2
A|-0-0-0-0-7-0-0-5-0-0-4-0-0-0-0-0-0-0-7-0-0-5-0-0-4-7-4-|
E|-------------------------------------------------------|

     |----Abafado--|   |Abaf|   |Abaf|
E|------------------------------------|
B|------------------------------------|
G|------------------7-777777-9-999999-|
D|-7-77777777777777-7-777777-9-999999-| x2
A|-7-77777777777777-5-555555-7-777777-|
E|-5-55555555555555-------------------|

E|-------------------|
B|-------------------|
G|---------------7-7-|
D|-7-7-7-XX-4-XX-7-7-| x3
A|-7-7-7-XX-4-XX-5-5-|
E|-5-5-5-XX-2-XX-----|

    |----Abafado----|        |Abafado|
E|-------------------|    |----------------|
B|-------------------|    |----------------|
G|-99999999-77777777-|    |-55555555-7-----|
D|-99999999-77777777-| x2 |-55555555-7-9-7-|
A|-77777777-55555555-|    |-77777777-5-9-7-|
E|-------------------|    |------------7-5-|

        [Guitarra 1]
E|----------------------------------|
B|-2---2-2-2---2-3-2---2-3-0---0-3--|
G|--2---2-3-2---2-2-2---2-2-1---1-1-|
D|---4-------0-------2-------2------| x 2 [Na 2a vez entra a guitarra 2]
A|----------------------------------|
E|----------------------------------|

        [Guitarra 2]
E|--------------------------------------|
B|--------------------------------------|
G|----------77777777----------9999-7777-|
D|-44444444-77777777-77777777-9999-7777-| [Entra quando a guitarra 1 tocar o solo
A|-44444444-55555555-77777777-7777-5555-|  pela 2a vez]
E|-22222222----------55555555-----------|

E|-------------------|
B|-------------------|
G|---------------7-7-|
D|-7-7-7-XX-4-XX-7-7-| x3
A|-7-7-7-XX-4-XX-5-5-|
E|-5-5-5-XX-2-XX-----|

    |----Abafado----|        |Abafado|
E|-------------------|    |----------------|
B|-------------------|    |----------------|
G|-99999999-77777777-|    |-55555555-7-----|
D|-99999999-77777777-| x2 |-55555555-7-9-7-|
A|-77777777-55555555-|    |-77777777-5-9-7-|
E|-------------------|    |------------7-5-|

E|-------------------------------------------------------|
B|-------------------------------------------------------|
G|-------------------------------------------------------|
D|-------------------------------------------------------| [Tocar ate o final]
A|-0-0-0-0-7-0-0-5-0-0-4-0-0-0-0-0-0-0-7-0-0-5-0-0-4-7-4-|
E|-------------------------------------------------------|

Clipes