busca

The Rock Show

blink-182

INTRO

G|-----------------|-----------------|-----------------|-----------------|
D|-----------------|-----------------|-----------------|-----------------|
A|-0-0-0-0-0-0-0-0-|-0-0-0-0-0-0-0-0-|-5-5-5-5-5-5-5-5-|-7-7-7-7-7-7-7-7-| (x2)
E|-----------------|-----------------|-----------------|-----------------|

PRE-VERSE

G|-----------------|-----------------|
D|-----------------|-----------------|
A|-0-0-0-0-0-0-0-0-|-0-0-0-0-0-0-0-0-|
E|-----------------|-----------------|

VERSE

G|-----------------|-----------------|-----------------|-----------------|
D|-----------------|-----------------|-----------------|-----------------|
A|-0-0-0-0-0-0-0-0-|-0-0-0-0-0-0-0-0-|-5-5-5-5-5-5-5-5-|-7-7-7-7-7-7-7-7-| (x2)
E|-----------------|-----------------|-----------------|-----------------|

BREAK

G|-----------------|-----------------|-----------------|-----------------|
D|-----------------|-----------------|-----------------|-----------------|
A|-0-0-0-0-0-0-0-0-|-0-0-0-0-0-0-0-0-|-5-5-5-5-5-5-5-5-|-7-7-7-7-7-7-7-7-| (x2)
E|-----------------|-----------------|-----------------|-----------------|

VERSE

CHORUS

G|-----------------|----------------|
D|-----------------|----------------|
A|-0---0---0---0---|----------5---5-| (x3)
E|-----------------|-2---2----------|

G|-----------------|-----------------|-----------------|-----------------|
D|-----------------|-----------------|-----------------|-----------------|
A|-7-7-7-7-7-7-7-7-|-5-5-5-5-5-5-5-5-|-7-7-7-7-7-7-7-7-|-5-5-5-5-5-5-5-5-|
E|-----------------|-----------------|-----------------|-----------------|

G|-----------------|-----------------|
D|-----------------|-----------------|
A|-7-7-7-7-7-7-7-7-|-5-------4-------|
E|-----------------|-----------------|

BREAK

VERSE

CHORUS

BRIDGE

G|-----------------|-----------------|-----------------|-----------------|
D|-----------------|-----------------|-----------------|-----------------|
A|-9-9-9-9-9-9-9-9-|-9-9-9-9-9-9-9-7-|-5-5-5-5-5-5-5-5-|-7-7-5-5-4-4-----|
E|-----------------|-----------------|-----------------|-------------7-7-|

G|-----------------|-----------------|-----------------|-----------------|
D|-----------------|-----------------|-----------------|-----------------|
A|-----------------|-------------4-4-|-7-7-7-7-7-7-7-7-|-7-7-7-7-5-5-7-7-|
E|-5-5-5-5-5-5-5-5-|-5-5-5-5-7-7-----|-----------------|-----------------| 

G|-----------------|-----------------|-----------------|-----------------|
D|-----------------|-----------------|-----------------|-----------------|
A|-9-9-9-9-9-9-9-9-|-9-9-9-9-9-9-9-7-|-5-5-5-5-5-5-5-5-|-7-7-5-5-4-4-----|
E|-----------------|-----------------|-----------------|-------------7-7-|

G|-----------------|-----------------|-----------------|-----------------|
D|-----------------|-----------------|-----------------|-----------------|
A|-----------------|-------------4-4-|-7-7-7-7-7-7-7-7-|-5-5-5-5-5-5-5-5-|
E|-5-5-5-5-5-5-5-5-|-5-5-5-5-7-7-----|-----------------|-----------------|

CHORUS

OUTRO

G|-----------------|-----------------|-----------------|-----------------|
D|-----------------|-----------------|-----------------|-----------------|
A|-0-0-0-0-0-0-0-0-|-0-0-0-0-0-0-0-0-|-5-5-5-5-5-5-5-5-|-7-7-7-7-7-7-7-7-| (x8)
E|-----------------|-----------------|-----------------|-----------------|

_______________________________________________________
Contribuição: Louise Yukari Cicalise Takeshita(louiseyukari@zipmail.com.br)

Clipes