PM|............................." /> PM|.............................">
busca

The Rock Show

blink-182

Tom: A
Tempo: 193

DS - Deixe Soar =P

Intro (2X)

        ds|-----   ds|---|              ds|-----|  ds|-----|
e|---------------|----------------|---------------|----------------|
B|---------------|----------------|---------------|----------------|
G|---------------|----------------|---------------|----------------|
D|-------2-------|0---------------|0------2-------|0---------2-----|
A|0--0-0-----0-0-|----0-0-4-0-4-0-|0--0-0-----0-0-|----0-0-4---4-0-|
E|---------------|----------------|---------------|----------------|


PM|................................   
D|----------------|----------------|
A|----------------|----------------|
E|5-5-5-5-5-5-5-5-|5-5-5-5-5-5-5-5-|


Verso (2X)

   PM|.............................  PM|............  PM|............
D|----------------|----------------|7---------------|9---------------|
A|7---------------|----------------|5---5-5-5-5-5-5-|7---7-7-7-7-7-0-|
E|5---5-5-5-5-5-5-|5-5-5-5-5-5-5-0-|----------------|----------------|


Intro (2X)


Quando for cantar o segundo verso, toca a Lá solta e deixa soar até o refrão


Refrão

(I fell in love, with the girl..)
B|-------------|---------------|
G|-------------|------X-7--7-X-|
D|7--7--7--7\4-|4--4--X-5--5-X-| >3X
A|7--7--7--7\4-|4--4--X-5--5-X-|
E|5--5--5--5\2-|2--2-----------|


(Everything is better when she's...)
   PM|....................................................................................
D|----------------|7-7-7-7-7-7-7-7-|9-9-9-9-9-9-9-9-|7-7-7-7-7-7-7---|9-9-------9-9-------|
A|2---------------|5-5-5-5-5-5-5-5-|7-7-7-7-7-7-7-7-|5-5-5-5-5-5-5-0-|7-7-------7-7-------|
E|0---0-0-0-0-0-0-|----------------|----------------|----------------|----0-0-0-----0-0-0-|


(girl at the rock show)
D|7--------7------|
A|5--------4------|


Intro (2X)


No 3º verso é só fazer igual ao segundo(tocar a lá solta)


Refrão

Coda 1:


B|-2----------|2-----3----|  \ 4X
G|---2--------|--2-----2--|  /


F#m              Dmaj7                       A5                       E5      D5
  And if I got another chance, I'd still ask her to dance because she kept me waiting


Refrão

Clipes