This Is Home

Blink-182

Tom: G
#1t1#INTRO x3
#1t2#E|-----------------|-----------------|-----------------|-----------------|
B|-----3---2-------|-------2-----2-3-|-----3---2-------|-------2-----2-3-|
G|-2-2---2---2-2-2-|-4-2-2---2-2-----|-2-2---2---2-2-2-|-4-2-2---2-2-----|
D|-----------------|-----------------|-----------------|-----------------|
A|-----------------|-----------------|-----------------|-----------------|
E|-----------------|-----------------|-----------------|-----------------|#/1t2##/1t1#

VERSE x4 (same as intro riff)
"We work and slave the day away, we're raised in perfect families..."
#2t1##2t2#E|-----------------|-----------------|-----------------|-----------------|
B|-----3---2-------|-------2-----2-3-|-----3---2-------|-------2-----2-3-|
G|-2-2---2---2-2-2-|-4-2-2---2-2-----|-2-2---2---2-2-2-|-4-2-2---2-2-----|
D|-----------------|-----------------|-----------------|-----------------|
A|-----------------|-----------------|-----------------|-----------------|
E|-----------------|-----------------|-----------------|-----------------|#/2t2##/2t1#

CHORUS x1
"I-i-i, I-i-i hope, do you wanna let go..."
#3t1##3t2#E|-----------------|-----------------|-----------------|-----------------|
B|-----------------|-----------------|-----------------|-----------------|
G|-----------------|----------4------|-7---------------|-----------------|
D|-7--------7------|-4--------4------|-7--------7------|-2---------------|
A|-5--------7------|-4--------2------|-5--------7------|-2---------------|
E|-5--------5------|-2---------------|----------5------|-0---------------|#/3t2##/3t1#

#4t1#INTERLUDE x2 (same as intro riff)
#4t2#E|-----------------|-----------------|-----------------|-----------------|
B|-----3---2-------|-------2-----2-3-|-----3---2-------|-------2-----2-3-|
G|-2-2---2---2-2-2-|-4-2-2---2-2-----|-2-2---2---2-2-2-|-4-2-2---2-2-----|
D|-----------------|-----------------|-----------------|-----------------|
A|-----------------|-----------------|-----------------|-----------------|
E|-----------------|-----------------|-----------------|-----------------|#/4t2##/4t1#

VERSE x4
"Gunshots the punks are rioting, the stage is slowly crumbling..."
#5t1##5t2#E|-----------------|-----------------|-----------------|-----------------|
B|-----3---2-------|-------2-----2-3-|-----3---2-------|-------2-----2-3-|
G|-2-2---2---2-2-2-|-4-2-2---2-2-----|-2-2---2---2-2-2-|-4-2-2---2-2-----|
D|-----------------|-----------------|-----------------|-----------------|
A|-----------------|-----------------|-----------------|-----------------|
E|-----------------|-----------------|-----------------|-----------------|#/5t2##/5t1#

CHORUS x1
"I-i-i, I-i-i hope, do you wanna let go..."
#6t1##6t2#E|-----------------|-----------------|-----------------|-----------------|
B|-----------------|-----------------|-----------------|-----------------|
G|-----------------|----------4------|-7---------------|-----------------|
D|-7--------7------|-4--------4------|-7--------7------|-2---------------|
A|-5--------7------|-4--------2------|-5--------7------|-2---------------|
E|-5--------5------|-2---------------|----------5------|-0---------------|#/6t2##/6t1#

#7t1#BRIDGE x1
#7t2#E|-----------------|-----------------|-----------------|-----------------|
B|-----------------|-----------------|-----------------|-----------------|
G|-----------------|-----------------|-----------------|-----------------|
D|-----------------|-----------------|-----------------|-----------------|
A|-----------------|-----------------|-7-7-7-7-7-7-7-7-|-5-5-5-5-5-5-5-5-|
E|-5-5-5-5-5-5-5-5-|-2-2-2-2-2-2-2-2-|-----------------|-----------------|
   .....................................................................#/7t2##/7t1#

#8t1##8t2#E|-----------------|-----------------|-----------------|-----------------|
B|-----------------|-----------------|-----------------|-----------------|
G|-----------------|-----------------|-----------------|---------7-7-7-7-|
D|-----------------|-----------------|-9-9-9-9-9-9-9-9-|-7-7-7-7-7-7-7-7-|
A|-7-7-7-7-7-7-7-7-|-4-4-4-4-4-4-4-4-|-7-7-7-7-7-7-7-7-|-5-5-5-5-5-5-5-5-|
E|-5-5-5-5-5-5-5-5-|-2-2-2-2-2-2-2-2-|-----------------|-----------------|
   ...........................................................#/8t2##/8t1#

CHORUS x2
"I-i-i, I-i-i hope, do you wanna let go..."
#9t1##9t2#E|-----------------|-----------------|-----------------|-----------------|
B|-----------------|-----------------|-----------------|-----------------|
G|-----------------|----------4------|-7---------------|-----------------|
D|-7--------7------|-4--------4------|-7--------7------|-2---------------|
A|-5--------7------|-4--------2------|-5--------7------|-2---------------|
E|-5--------5------|-2---------------|----------5------|-0---------------|#/9t2##/9t1#

END ON x1
"...this is home"
#10t1##10t2#E|-----------------|-----------------|-----------------|-----------------|
B|-----------------|-----------------|-----------------|-----------------|
G|-----------------|-----------------|-----------------|-----------------|
D|-7---------------|-----------------|-----------------|-----------------|
A|-7--(let ring)---|-----------------|-----------------|-----------------|
E|-5---------------|-----------------|-----------------|-----------------|#/10t2##/10t1#
Composição: blinkColaboração e revisão: luciano jr