busca

This Is Home

blink-182

Tom: D
INTRO x3
E|-----------------|-----------------|-----------------|-----------------|
B|-----3---2-------|-------2-----2-3-|-----3---2-------|-------2-----2-3-|
G|-2-2---2---2-2-2-|-4-2-2---2-2-----|-2-2---2---2-2-2-|-4-2-2---2-2-----|
D|-----------------|-----------------|-----------------|-----------------|
A|-----------------|-----------------|-----------------|-----------------|
E|-----------------|-----------------|-----------------|-----------------|

VERSE x4 (same as intro riff)
"We work and slave the day away, we're raised in perfect families..."
E|-----------------|-----------------|-----------------|-----------------|
B|-----3---2-------|-------2-----2-3-|-----3---2-------|-------2-----2-3-|
G|-2-2---2---2-2-2-|-4-2-2---2-2-----|-2-2---2---2-2-2-|-4-2-2---2-2-----|
D|-----------------|-----------------|-----------------|-----------------|
A|-----------------|-----------------|-----------------|-----------------|
E|-----------------|-----------------|-----------------|-----------------|

CHORUS x1
"I-i-i, I-i-i hope, do you wanna let go..."
E|-----------------|-----------------|-----------------|-----------------|
B|-----------------|-----------------|-----------------|-----------------|
G|-----------------|----------4------|-7---------------|-----------------|
D|-7--------7------|-4--------4------|-7--------7------|-2---------------|
A|-5--------7------|-4--------2------|-5--------7------|-2---------------|
E|-5--------5------|-2---------------|----------5------|-0---------------|

INTERLUDE x2 (same as intro riff)
E|-----------------|-----------------|-----------------|-----------------|
B|-----3---2-------|-------2-----2-3-|-----3---2-------|-------2-----2-3-|
G|-2-2---2---2-2-2-|-4-2-2---2-2-----|-2-2---2---2-2-2-|-4-2-2---2-2-----|
D|-----------------|-----------------|-----------------|-----------------|
A|-----------------|-----------------|-----------------|-----------------|
E|-----------------|-----------------|-----------------|-----------------|

VERSE x4
"Gunshots the punks are rioting, the stage is slowly crumbling..."
E|-----------------|-----------------|-----------------|-----------------|
B|-----3---2-------|-------2-----2-3-|-----3---2-------|-------2-----2-3-|
G|-2-2---2---2-2-2-|-4-2-2---2-2-----|-2-2---2---2-2-2-|-4-2-2---2-2-----|
D|-----------------|-----------------|-----------------|-----------------|
A|-----------------|-----------------|-----------------|-----------------|
E|-----------------|-----------------|-----------------|-----------------|

CHORUS x1
"I-i-i, I-i-i hope, do you wanna let go..."
E|-----------------|-----------------|-----------------|-----------------|
B|-----------------|-----------------|-----------------|-----------------|
G|-----------------|----------4------|-7---------------|-----------------|
D|-7--------7------|-4--------4------|-7--------7------|-2---------------|
A|-5--------7------|-4--------2------|-5--------7------|-2---------------|
E|-5--------5------|-2---------------|----------5------|-0---------------|

BRIDGE x1
E|-----------------|-----------------|-----------------|-----------------|
B|-----------------|-----------------|-----------------|-----------------|
G|-----------------|-----------------|-----------------|-----------------|
D|-----------------|-----------------|-----------------|-----------------|
A|-----------------|-----------------|-7-7-7-7-7-7-7-7-|-5-5-5-5-5-5-5-5-|
E|-5-5-5-5-5-5-5-5-|-2-2-2-2-2-2-2-2-|-----------------|-----------------|
   .....................................................................

E|-----------------|-----------------|-----------------|-----------------|
B|-----------------|-----------------|-----------------|-----------------|
G|-----------------|-----------------|-----------------|---------7-7-7-7-|
D|-----------------|-----------------|-9-9-9-9-9-9-9-9-|-7-7-7-7-7-7-7-7-|
A|-7-7-7-7-7-7-7-7-|-4-4-4-4-4-4-4-4-|-7-7-7-7-7-7-7-7-|-5-5-5-5-5-5-5-5-|
E|-5-5-5-5-5-5-5-5-|-2-2-2-2-2-2-2-2-|-----------------|-----------------|
   ...........................................................

CHORUS x2
"I-i-i, I-i-i hope, do you wanna let go..."
E|-----------------|-----------------|-----------------|-----------------|
B|-----------------|-----------------|-----------------|-----------------|
G|-----------------|----------4------|-7---------------|-----------------|
D|-7--------7------|-4--------4------|-7--------7------|-2---------------|
A|-5--------7------|-4--------2------|-5--------7------|-2---------------|
E|-5--------5------|-2---------------|----------5------|-0---------------|

END ON x1
"...this is home"
E|-----------------|-----------------|-----------------|-----------------|
B|-----------------|-----------------|-----------------|-----------------|
G|-----------------|-----------------|-----------------|-----------------|
D|-7---------------|-----------------|-----------------|-----------------|
A|-7--(let ring)---|-----------------|-----------------|-----------------|
E|-5---------------|-----------------|-----------------|-----------------|

Clipes