busca

Toast and Bananas

blink-182

Tom: A
"Do you wanna know, what I think of you..."

E|-----------------|-----------------|-----------------|-----------------|
B|-----------------|-----------------|-----------------|-----------------|
G|-----------------|-----------------|-----------------|-----------------|
D|-----------------|-----------------|-6---6-6-6-6-6-6-|-7---7-7-------7-|
A|-7-7-7-7-7-7-7-7-|---7-7-7-7-7-7-7-|-4---4-4-4-4-4-4-|-5---5-5-5-4---7-|
E|-5-5-5-5-5-5-5---|---7-7-7-7-7-7-7-|-----------------|-------------7-5-|
   .............       .............

VERSO b x1
E|-----------------|-----------------|-----------------|-----------------|
B|-----------------|-----------------|-----------------|-----------------|
G|-----------------|-----------------|-----------------|-7---------------|
D|-----------------|-----------------|-6---6-6-6-6-6-6-|-7---------------|
A|-7-7-7-7-7-7-7-7-|---7-7-7-7-7-7-7-|-4---4-4-4-4-4-4-|-5---------------|
E|-5-5-5-5-5-5-5---|---7-7-7-7-7-7-7-|-----------------|-----------------|
   .............       .............

Primeiro riff x4
E|-----------------|-----------------|-----------------|-----------------|
B|-----------------|-----------------|-----------------|-----------------|
G|-----------------|-----------------|-----------------|-----------------|
D|---------7-7-7-6-|-6-6-------------|-----------------|-----------------|
A|-0-0-0-0---------|-----7-7-5-5-4-4-|-0-0-0-0-7-7-7-5-|-5-4-5-7-5-4-0-0-|
E|-----------------|-----------------|-----------------|-----------------|

VERSO c x4
"What did you think of me acting this way..."
E|-----------------|-----------------|-----------------|-----------------|
B|-----------------|-----------------|-----------------|-----------------|
G|-----------------|-----------------|-----------------|-7-7-7-7-7-7-7-7-|
D|-7---------------|-2---------------|-4---------------|-7-7-7-7-7-7-7-7-|
A|-7---7-7-7-7-7-7-|-2---2-2-2-2-2-2-|-4---4-4-4-4-4-4-|-5-5-5-5-5-5-5-5-|
E|-5---5-5-5-5-5-5-|-0---0-0-0-0-0-0-|-2---2-2-2-2-2-2-|-----------------|
       ...........       ...........       ...........

CHORUS a x1
"...to me as I walk alone I'd much rather be riding prone..."
E|-----------------|-----------------|-----------------|-----------------|
B|-----------------|-----------------|-----------------|-----------------|
G|-----------------|-9---9-9---------|-11---11-11------|-7---7-7---------|
D|-7---7-7---------|-9---9-9---------|-11---11-11------|-7---7-7---------|
A|-7---7-7---------|-7---7-7---------|--9----9--9------|-5---5-5---------|
E|-5---5-5---------|-----------------|-----------------|-----------------|

E|-----------------|-----------------|-------------------------|-----------------|
B|-----------------|-----------------|-------------------------|-----------------|
G|-----------------|-9-9-9-9-9-9-9-9-|-11-11-11-11-11-11-11-11-|-7-7-7-7-7-7-7-7-|
D|-7-7-7-7-7-7-7-7-|-9-9-9-9-9-9-9-9-|-11-11-11-11-11-11-11-11-|-7-7-7-7-7-7-7-7-|
A|-7-7-7-7-7-7-7-7-|-7-7-7-7-7-7-7-7-|--9--9--9--9--9--9--9--9-|-5-5-5-5-5-5-5-5-|
E|-5-5-5-5-5-5-5-5-|-----------------|-------------------------|-----------------|

Primeiro riff x2
E|-----------------|-----------------|-----------------|-----------------|
B|-----------------|-----------------|-----------------|-----------------|
G|-----------------|-----------------|-----------------|-----------------|
D|---------7-7-7-6-|-6-6-------------|-----------------|-----------------|
A|-0-0-0-0---------|-----7-7-5-5-4-4-|-0-0-0-0-7-7-7-5-|-5-4-5-7-5-4-0-0-|
E|-----------------|-----------------|-----------------|-----------------|

ERSO c x2
"I wanted to know, I didn't want to lose..."
E|-----------------|-----------------|-----------------|-----------------|
B|-----------------|-----------------|-----------------|-----------------|
G|-----------------|-----------------|-----------------|-7-7-7-7-7-7-7-7-|
D|-7---------------|-2---------------|-4---------------|-7-7-7-7-7-7-7-7-|
A|-7---7-7-7-7-7-7-|-2---2-2-2-2-2-2-|-4---4-4-4-4-4-4-|-5-5-5-5-5-5-5-5-|
E|-5---5-5-5-5-5-5-|-0---0-0-0-0-0-0-|-2---2-2-2-2-2-2-|-----------------|
       ...........       ...........       ...........

CHORUS b x1
"...to me as tune you out of my mind..."
E|-----------------|-----------------|-----------------|
B|-----------------|-----------------|-----------------|
G|-7-7-7-7-7-7-7-7-|-----------------|-----------------|
D|-7-7-7-7-7-7-7-7-|-7-7-7-7-7-7-7-7-|-4-4-4-4-4-4-4-4-|
A|-5-5-5-5-5-5-5-5-|-7-7-7-7-7-7-7-7-|-4-4-4-4-4-4-4-4-|
E|-----------------|-5-5-5-5-5-5-5-5-|-2-2-2-2-2-2-2-2-|

E|-----------------|-----------------|
B|-----------------|-----------------|
G|-7-7-7-7-7-7-7-7-|-9-9-9-9-9-9-9-9-|
D|-7-7-7-7-7-7-7-7-|-9-9-9-9-9-9-9-9-|
A|-5-5-5-5-5-5-5-5-|-7-7-7-7-7-7-7-7-|
E|-----------------|-----------------|

CHORUS a x1
"Don't talk to me as I walk alone I'd much rather be riding prone..."
E|-----------------|-----------------|-----------------|-----------------|
B|-----------------|-----------------|-----------------|-----------------|
G|-----------------|-9---9-9---------|-11---11-11------|-7---7-7---------|
D|-7---7-7---------|-9---9-9---------|-11---11-11------|-7---7-7---------|
A|-7---7-7---------|-7---7-7---------|--9----9--9------|-5---5-5---------|
E|-5---5-5---------|-----------------|-----------------|-----------------|

E|-----------------|-----------------|-------------------------|-----------------|
B|-----------------|-----------------|-------------------------|-----------------|
G|-----------------|-9-9-9-9-9-9-9-9-|-11-11-11-11-11-11-11-11-|-7-7-7-7-7-7-7-7-|
D|-7-7-7-7-7-7-7-7-|-9-9-9-9-9-9-9-9-|-11-11-11-11-11-11-11-11-|-7-7-7-7-7-7-7-7-|
A|-7-7-7-7-7-7-7-7-|-7-7-7-7-7-7-7-7-|--9--9--9--9--9--9--9--9-|-5-5-5-5-5-5-5-5-|
E|-5-5-5-5-5-5-5-5-|-----------------|-------------------------|-----------------|

SOLO a x2
E|-----------------|-----------------|-----------------|-----------------|
B|-----------------|-----------------|-----------------|-----------------|
G|-----------------|-----------------|-----------------|-----------------|
D|-----------------|-----------------|-----------------|-----------------|
A|-0---2-4-5-7-5-4-|-0---2-4-5-7-5-4-|-0---2-4-5-7-5-4-|-0---2-4-5-4-2---|
E|-----------------|-----------------|-----------------|-----------------|

SOLO b x2
E|----------------9-------|----------------9-------|----------------9-------|
B|-10-10-10-10-10---12-10-|-10-10-10-10-10---12-10-|-10-10-10-10-10---12-10-|
G|------------------------|------------------------|------------------------|
D|------------------------|------------------------|------------------------|
A|------------------------|------------------------|------------------------|
E|------------------------|------------------------|------------------------|

E|-12-12-10-10-9-9--------|----------------9-------|----------------9-------|
B|-----------------12-12--|-10-10-10-10-10---12-10-|-10-10-10-10-10---12-10-|
G|------------------------|------------------------|------------------------|
D|------------------------|------------------------|------------------------|
A|------------------------|------------------------|------------------------|
E|------------------------|------------------------|------------------------|

E|----------------------------|--------------------|
B|-----9h10p9-9h10p9--12p10p9-|-9h10p9-9h10p9------|
G|-9-9------------------------|----------------9---|
D|----------------------------|--------------------|
A|----------------------------|--------------------|
E|----------------------------|--------------------|

CHORUS b x1
"Don't talk to me as tune you out of my mind..."
E|-----------------|-----------------|-----------------|
B|-----------------|-----------------|-----------------|
G|-7-7-7-7-7-7-7-7-|-----------------|-----------------|
D|-7-7-7-7-7-7-7-7-|-7-7-7-7-7-7-7-7-|-4-4-4-4-4-4-4-4-|
A|-5-5-5-5-5-5-5-5-|-7-7-7-7-7-7-7-7-|-4-4-4-4-4-4-4-4-|
E|-----------------|-5-5-5-5-5-5-5-5-|-2-2-2-2-2-2-2-2-|

E|-----------------|-----------------|
B|-----------------|-----------------|
G|-7-7-7-7-7-7-7-7-|-9-9-9-9-9-9-9-9-|
D|-7-7-7-7-7-7-7-7-|-9-9-9-9-9-9-9-9-|
A|-5-5-5-5-5-5-5-5-|-7-7-7-7-7-7-7-7-|
E|-----------------|-----------------|

ÚLTIMA PARTE

E|-----------------|-----------------|-----------------|-----------------|
B|-----------------|-----------------|-----------------|-----------------|
G|-----------------|-9---9-9---------|-11---11-11------|-7---7-7---------|
D|-7---7-7---------|-9---9-9---------|-11---11-11------|-7---7-7---------|
A|-7---7-7---------|-7---7-7---------|--9----9--9------|-5---5-5---------|
E|-5---5-5---------|-----------------|-----------------|-----------------|

E|-----------------|-----------------|-------------------------|-----------------|
B|-----------------|-----------------|-------------------------|-----------------|
G|-----------------|-9-9-9-9-9-9-9-9-|-11-11-11-11-11-11-11-11-|-7-7-7-----------|
D|-7-7-7-7-7-7-7-7-|-9-9-9-9-9-9-9-9-|-11-11-11-11-11-11-11-11-|-7-7-7-----------|
A|-7-7-7-7-7-7-7-7-|-7-7-7-7-7-7-7-7-|--9--9--9--9--9--9--9--9-|-5-5-5-----------|
E|-5-5-5-5-5-5-5-5-|-----------------|-------------------------|-----------------|

E|-----------------|
B|-----------------|
G|-----------------|
D|--7--------------|
A|--7--------------|
E|--5--------------|

Clipes