busca

Toast and Bananas

blink-182

Tom: B
intro 
e|---------------------------------------------|
b|---------------------------------------------|
g|----------------------------6/7-7777---------|
d|-77777777-22222222-44444444-6/7-7777---------|
a|-77777777-22222222-44444444-4/5-5555-5-4-2-0-|
e|-55555555-00000000-22222222------------------|

pre|-verse (double picked)
e|--------------------------------|
b|--------------------------------|
g|--------------------------------|
d|----77766-----------------------|
a|-00-------775544--0077755450----|
e|--------------------------------|

verse
e|--------------------------|
b|--------------------------|
g|-------------------77777--|
d|-77777-22222-44444-77777--|
a|-77777-22222-44444-55555--|
e|-55555-00000-22222--------|

chorus
e|---------------------------------------------------|
b|---------------------------------------------------|
g|-----999-111111-77777-------99999-1111111111-77777-|
d|-777-999-111111-77777-77777-99999-1111111111-77777-|
a|-777-777--9-9-9-55555-77777-77777--9-9-9-9-9-55555-|
e|-555------------------55555------------------------|

pre chorus-(..say to me as i tune you out of my mind..)
e|------------------------|
b|------------------------|
g|-------------77777777---|
d|-77777-44444-77777777---|
a|-77777-44444-55555555---|
e|-55555-22222------------|

solo
e|----------------------------------------------------|
b|----------------------------------------------------|
g|----------------------------------------------------|
d|----------------------------------------------------|
a|-02457542-02457542-02457542-24540-02457542-02457542-|
e|----------------------------------------------------|

(cont)
e|---------------------------9-------------9-------------9----|
b|------------------10101010---12-10101010---12-10101010---12-|
g|------------------------------------------------------------|
d|------------------------------------------------------------|
a|-02457542-24540---------------------------------------------|
e|------------------------------------------------------------|

(cont)
e|--1212-1010-9-12-----------9--------------9-----|
b|------------------10101010---12--10101010---12--|
g|------------------------------------------------|
d|------------------------------------------------|
a|------------------------------------------------|
e|------------------------------------------------|

(cont)
e|----------------------------|
b|----9-9h10-12-----9-9h10----|
g|--9------------9---------9--|
d|----------------------------|
a|----------------------------|
e|----------------------------|

Clipes