busca

Tom

Blink-182

Tom: G
Tom toca essa musica num estudio com o violão.

4X
---------------------------------------------------------------|
---------------------------------------------------------------|
---------------------------------------------------------------|
-5-------------------------------------------------------------|
-2-------------------------------------------------------------|
---------------------------------------------------------------|

---------------------------------------------------------------|
---------------------------------------------------------------|
----------4----------------------------------------------------|
-5--5--5------------------------------------------------------|
---------------------------------------------------------------|
---------------------------------------------------------------|

4X
---------------------------------------------------------------|
---------------------------------------------------------------|
---------------------------------------------------------------|
-5-------------------------------------------------------------|
-3-------------------------------------------------------------|
---------------------------------------------------------------|

---------------------------------------------------------------|
---------------------------------------------------------------|
----------4----------------------------------------------------|
-5--5--5------------------------------------------------------|
---------------------------------------------------------------|
---------------------------------------------------------------|

 X X
 ~~~~

Clipes

Cifra Club Pro

Aproveite o Cifra Club com benefícios exclusivos e sem anúncios
Cifra Club Pro
Aproveite o Cifra Club com benefícios exclusivos e sem anúncios