busca

Untitled (Live)

blink-182

Tom: E
Intro e verso :
|------------------------------------|
|------------------------------------|
|---44444-44444444-------------------|
|---44444-44444444-222222-44444444---|
|---22222-22222222-222222-44444444---|
|------------------000000-22222222|6x|
p.m.

I think of awhile ago           
We might have had it all          
But I was so stupid then        
You needed time to grow
But now just as things change          
As well my feelings do          
In time things rearrange                 
I am so sick of chasing you

Refrão :
|-------------------------------------------|
|-------------------------------------------|
|---4~--8/9-9~--9/8-8\4-4~--4/6-6-3~-3/4~---|
|---4~--8/9-9~--9/8-8\4-4~--4/6-6-3~-3/4~---| 
|---2~--6/7-7~--7/6-6\2-2~--2/4-4-1~-1/2~---|
|----------------------------------------|2x|

But what do I get 'cause I just seem to lose
You make me regret those times I spent with you
And playing those games as I wait for your call
And now I give up, so goodbye and so long.

Com distorção : 
|---------------------------------|
|---------------------------------|
|---444444---------------999888---|
|---444444-222222-444444-999888---| 
|---222222-222222-444444-777666---|
|----------000000-222222-------|2x|

|-----------------------------------|
|-----------------------------------|
|---4444444444444-------------------|
|---4444444444444-222222-44444444---|
|---2222222222222-222222-44444444---|
|-----------------000000-22222222|4x|

It's not a change of pace         
This time I'll get it right
It's not a change of taste
I was the one there last night
You have your other friends           
They were there when you cried
Didn't mean to hurt you then          
Best friends just won't leave your side

Refrão :
|-----------------------------------------------------|
|-----------------------------------------------------|
|---44444444-888-99999999-888-44444444-666-33333333---|
|---44444444-888-99999999-888-44444444-666-33333333---|
|---22222222-666-77777777-666-22222222-444-11111111---|
|--------------------------------------------------|2x|

But what do I get 'cause I just seem to lose              
You make me regret those times I spent with you             
And playing those games as I wait for your call            
And now I give up, so goodbye and so long

Bridge :
|---------------------|
|---------------------|
|---------------------|
|-----2---4---4--2--0-|
|--2------------------|
|------------------|8x|
|-p.m.-|     |--p.m.--|

|----|
|----|
|----|
|----|
|----|
|-7*-|* harminico

It's not a change of pace
This time I'll get it right
It's not a change of taste
I was the one there last night

Refrão :
|-----------------------------------------------------|
|-----------------------------------------------------|
|---44444444-888-99999999-888-44444444-666-33333333---|
|---44444444-888-99999999-888-44444444-666-33333333---|
|---22222222-666-77777777-666-22222222-444-11111111---|
|--------------------------------------------------|2x|

But what do I get 'cause I just seem to lose              
You make me regret those times I spent with you             
And playing those games as I wait for your call            
And now I give up, so goodbye and so long

|-------------------------------------------|-----------------------|
|-------------------------------------------|-----------------------|
|--44444444/999-8-6--4444/666/999-8-6--44---|---4444/666/999-8--4~--|
|--xxxxxxxx/xxx-x-x--xxxx/xxx/xxx-x-x--xx---|---xxxx/xxx/xxx-x--x---|
|--22222222/777-6-4--2222/444/777-6-4--22---|---2222/444/777-6--2~--|
|----------------------------------------|2x|-----------------------|

Clipes