busca

Up All Night

blink-182

Tom: G
Intro:
E|-------------------------------------------------------
B|-------------------------------------------------------
G|-------------------------------------------------------
D|-------------------------------------------------------
A|-------------------------------------------------------
E|---------------------7\--------------------------------

E|-------------------------------------------------------
B|-------------------------------------------------------
G|---------------9-9-------------------------------------  (4x)
D|------7/6/7----9-9---7-6---9-9-8-7---------------------
A|------7/6/7----7-7---7-6---9-9-8-7---------------------
E|------5/4/5----------5-4---7-7-6-5---------------------

Verso:
E|-------------------------------------------------------
B|-------------------------------------------------------
G|-------------------------------------------------------
D|-2-2-2-2-2-2-2-2-2-2-2-2-2-2-2-2-2-2-2-2-2-2-2-2-2-2-2-
A|-0-0-0-0-0-0-0-0-0-0-0-0-0-0-0-0-0-0-0-0-0-0-0-0-0-0-0-
E|-------------------------------------------------------

Pre-Refrão: 
E|---------------------------------------------------------------------------
B|---------------------------------------------------------------------------
G|---------------------------------------------------------------------------
D|--4-4-4-4-4-4-4-4--6-6-6-6-6-6-6-6--7-7-7-7-7-7-7-7--2-2-2-2-2-2-2-2-------
A|--4-4-4-4-4-4-4-4--6-6-6-6-6-6-6-6--7-7-7-7-7-7-7-7--2-2-2-2-2-2-2-2-------
E|--2-2-2-2-2-2-2-2--4-4-4-4-4-4-4-4--5-5-5-5-5-5-5-5--0-0-0-0-0-0-0-0-------

E|------------------------------------
B|------------------------------------
G|------------------------------------
D|--4-4-4-4-4-4-4-4--7-7-7-7-7-7-7-7--
A|--4-4-4-4-4-4-4-4--7-7-7-7-7-7-7-7--
E|--2-2-2-2-2-2-2-2--5-5-5-5-5-5-5-5--

Refrão:
E|-----------------------------------------------------
B|-----------------------------------------------------
G|-----4-4/6-6/4-4/6-6/7-7-----------------------------
D|-2-2/4-4/6-6/4-4/6-6/7-7-----------------------------
A|-0-0/2-2/4-4/2-2/4-4/5-5-----------------------------
E|-----------------------------------------------------

Intro:
E|-------------------------------------------------------
B|-------------------------------------------------------
G|---------------9-9-------------------------------------  (4x)
D|------7/6/7----9-9---7-6---9-9-8-7---------------------
A|------7/6/7----7-7---7-6---9-9-8-7---------------------
E|------5/4/5----------5-4---7-7-6-5---------------------

Verso 2:
E|-------------------------------------------------------
B|-------------------------------------------------------
G|-------------------------------------------------------
D|-2-2-2-2-2-2-2-2-2-2-2-2-2-2-2-2-2-2-2-2-2-2-2-2-2-2-2-
A|-0-0-0-0-0-0-0-0-0-0-0-0-0-0-0-0-0-0-0-0-0-0-0-0-0-0-0-
E|-------------------------------------------------------

Pre Refrão:
E|---------------------------------------------------------------------------
B|---------------------------------------------------------------------------
G|---------------------------------------------------------------------------
D|--4-4-4-4-4-4-4-4--6-6-6-6-6-6-6-6--7-7-7-7-7-7-7-7--2-2-2-2-2-2-2-2-------
A|--4-4-4-4-4-4-4-4--6-6-6-6-6-6-6-6--7-7-7-7-7-7-7-7--2-2-2-2-2-2-2-2-------
E|--2-2-2-2-2-2-2-2--4-4-4-4-4-4-4-4--5-5-5-5-5-5-5-5--0-0-0-0-0-0-0-0-------

E|------------------------------------
B|------------------------------------
G|------------------------------------
D|--4-4-4-4-4-4-4-4--7-7-7-7-7-7-7-7--
A|--4-4-4-4-4-4-4-4--7-7-7-7-7-7-7-7--
E|--2-2-2-2-2-2-2-2--5-5-5-5-5-5-5-5--

Refrão:
E|-----------------------------------------------------
B|-----------------------------------------------------
G|-----4-4/6-6/4-4/6-6/7-7-----------------------------
D|-2-2/4-4/6-6/4-4/6-6/7-7-----------------------------
A|-0-0/2-2/4-4/2-2/4-4/5-5-----------------------------
E|-----------------------------------------------------

E|-------------------------------------------------------
B|-------------------------------------------------------
G|---------------9-9-------------------------------------  (4x)
D|------7/6/7----9-9---7-6---9-9-8-7---------------------
A|------7/6/7----7-7---7-6---9-9-8-7---------------------
E|------5/4/5----------5-4---7-7-6-5---------------------

Clipes