Up All Night

Blink-182

Tom: G
#1t1#Intro:
#1t2#E|-------------------------------------------------------
B|-------------------------------------------------------
G|-------------------------------------------------------
D|-------------------------------------------------------
A|-------------------------------------------------------
E|---------------------7\--------------------------------#/1t2##/1t1#

#2t1##2t2#E|-------------------------------------------------------
B|-------------------------------------------------------
G|---------------9-9-------------------------------------  (4x)
D|------7/6/7----9-9---7-6---9-9-8-7---------------------
A|------7/6/7----7-7---7-6---9-9-8-7---------------------
E|------5/4/5----------5-4---7-7-6-5---------------------#/2t2##/2t1#

#3t1#Verso:
#3t2#E|-------------------------------------------------------
B|-------------------------------------------------------
G|-------------------------------------------------------
D|-2-2-2-2-2-2-2-2-2-2-2-2-2-2-2-2-2-2-2-2-2-2-2-2-2-2-2-
A|-0-0-0-0-0-0-0-0-0-0-0-0-0-0-0-0-0-0-0-0-0-0-0-0-0-0-0-
E|-------------------------------------------------------#/3t2##/3t1#

#4t1#Pre-Refrão: 
#4t2#E|---------------------------------------------------------------------------
B|---------------------------------------------------------------------------
G|---------------------------------------------------------------------------
D|--4-4-4-4-4-4-4-4--6-6-6-6-6-6-6-6--7-7-7-7-7-7-7-7--2-2-2-2-2-2-2-2-------
A|--4-4-4-4-4-4-4-4--6-6-6-6-6-6-6-6--7-7-7-7-7-7-7-7--2-2-2-2-2-2-2-2-------
E|--2-2-2-2-2-2-2-2--4-4-4-4-4-4-4-4--5-5-5-5-5-5-5-5--0-0-0-0-0-0-0-0-------#/4t2##/4t1#

#5t1##5t2#E|------------------------------------
B|------------------------------------
G|------------------------------------
D|--4-4-4-4-4-4-4-4--7-7-7-7-7-7-7-7--
A|--4-4-4-4-4-4-4-4--7-7-7-7-7-7-7-7--
E|--2-2-2-2-2-2-2-2--5-5-5-5-5-5-5-5--#/5t2##/5t1#

#6t1#Refrão:
#6t2#E|-----------------------------------------------------
B|-----------------------------------------------------
G|-----4-4/6-6/4-4/6-6/7-7-----------------------------
D|-2-2/4-4/6-6/4-4/6-6/7-7-----------------------------
A|-0-0/2-2/4-4/2-2/4-4/5-5-----------------------------
E|-----------------------------------------------------#/6t2##/6t1#

#7t1#Intro:
#7t2#E|-------------------------------------------------------
B|-------------------------------------------------------
G|---------------9-9-------------------------------------  (4x)
D|------7/6/7----9-9---7-6---9-9-8-7---------------------
A|------7/6/7----7-7---7-6---9-9-8-7---------------------
E|------5/4/5----------5-4---7-7-6-5---------------------#/7t2##/7t1#

#8t1#Verso 2:
#8t2#E|-------------------------------------------------------
B|-------------------------------------------------------
G|-------------------------------------------------------
D|-2-2-2-2-2-2-2-2-2-2-2-2-2-2-2-2-2-2-2-2-2-2-2-2-2-2-2-
A|-0-0-0-0-0-0-0-0-0-0-0-0-0-0-0-0-0-0-0-0-0-0-0-0-0-0-0-
E|-------------------------------------------------------#/8t2##/8t1#

#9t1#Pre Refrão:
#9t2#E|---------------------------------------------------------------------------
B|---------------------------------------------------------------------------
G|---------------------------------------------------------------------------
D|--4-4-4-4-4-4-4-4--6-6-6-6-6-6-6-6--7-7-7-7-7-7-7-7--2-2-2-2-2-2-2-2-------
A|--4-4-4-4-4-4-4-4--6-6-6-6-6-6-6-6--7-7-7-7-7-7-7-7--2-2-2-2-2-2-2-2-------
E|--2-2-2-2-2-2-2-2--4-4-4-4-4-4-4-4--5-5-5-5-5-5-5-5--0-0-0-0-0-0-0-0-------#/9t2##/9t1#

#10t1##10t2#E|------------------------------------
B|------------------------------------
G|------------------------------------
D|--4-4-4-4-4-4-4-4--7-7-7-7-7-7-7-7--
A|--4-4-4-4-4-4-4-4--7-7-7-7-7-7-7-7--
E|--2-2-2-2-2-2-2-2--5-5-5-5-5-5-5-5--#/10t2##/10t1#

#11t1#Refrão:
#11t2#E|-----------------------------------------------------
B|-----------------------------------------------------
G|-----4-4/6-6/4-4/6-6/7-7-----------------------------
D|-2-2/4-4/6-6/4-4/6-6/7-7-----------------------------
A|-0-0/2-2/4-4/2-2/4-4/5-5-----------------------------
E|-----------------------------------------------------#/11t2##/11t1#

#12t1##12t2#E|-------------------------------------------------------
B|-------------------------------------------------------
G|---------------9-9-------------------------------------  (4x)
D|------7/6/7----9-9---7-6---9-9-8-7---------------------
A|------7/6/7----7-7---7-6---9-9-8-7---------------------
E|------5/4/5----------5-4---7-7-6-5---------------------#/12t2##/12t1#
Composição: Colaboração e revisão: Lucas