Wasting time

Blink-182

Tom: G
#1t1#

Fig. 1
#1t2#----------------|----------------|----------------|
----------------|----------------|-----------------
----------------|----------------|-----------------
--------9-7-6---|----6/7-7-9-7-6-|------------------
-7--7-7-------7-|--7-------------|-11---11-11---12-1
-0--0-0-------5-|--5-------------|--9----9----9----#/1t2##/1t1#

#2t1#Fig. 2a
#2t2#--------------|-------------|---------------|-------
--------------|-------------|---------------|-------
---2--2-2-2---|-------------|-6--6--6-6-6-4-|--4-4--
---2--2-2-2-2-|--2-2--2--2--|-6--6--6-6-6-4-|--4-4--#/2t2##/2t1#

#3t1##3t2#------------0-|--0-0--0--0#/3t2##/3t1#

Fig. 2b

#4t1##4t2#--------------|-------------|-----------------|-----------------|
---2--2-2-2---|-------------|-6-6-6-6-6-6-6-6-|-6-6-6-6-6-6-6-6-|
---2--2-2-2-2-|--2-2--2--2--|-----------------|-----------------|
---0--0-0-0-2-|--2-2--2--2--|-4-4-4-4-4-4-4-4-|-4-4-4-4-4-4-4-4-|
------------0-|--0-0--0--0--|-----------------|-----------------|#/4t2##/4t1#

#5t1##5t2#-----------------|-----------------|-----------------|---------------|
-----------------|-----------------|-----------------|---------------|
-4-4-4-4-4-4-4-4-|-4-4-4-4-4-4-4-4-|-2-2-2-2-2-2-2-2-|-2-2-2-2-2-2-2-|
-----------------|-----------------|-----------------|---------------|
-2-2-2-2-2-2-2-2-|-2-2-2-2-2-2-2-2-|-0-0-0-0-0-0-0-0-|-0-0-0-0-0-0-0-|
-----------------|-----------------|-----------------|---------------|#/5t2##/5t1#

#6t1##6t2#-5-----5----5-|-------5-----|
----5-----5---|--5-5-----5--|
--------------|-------------| end Fig. 2b
--------------|-------------|
--------------|-------------|
--------------|-------------|#/6t2##/6t1#

#7t1#Fig. 3a
#7t2#----------------|----------------|----------------|----------------|
----------------|----------------|----------------|----------------|
----------------|-2--2-2-2-2-2-2-|-6--6-6-6-6-6-6-|-4--4-4-4-4-4-4-|
-2--2-2-2-2-2-2-|-2--2-2-2-2-2-2-|-6--6-6-6-6-6-6-|-4--4-4-4-4-4-4-|
-2--2-2-2-2-2-2-|-0--0-0-0-0-0-0-|-4--4-4-4-4-4-4-|-2--2-2-2-2-2-2-|
-0--0-0-0-0-0-0-|----------------|----------------|----------------|#/7t2##/7t1#

#8t1#Fig. 3b
#8t2#----------------|----------------|----------------|----------------|
----------------|----------------|----------------|----------------|
----------------|-2--------------|-6--------------|-4--------------|
-2--------------|-2--2-2-2-2-2-2-|-6--6-6-6-6-6-6-|-4--4-4-4-4-4-4-|
-2--2-2-2-2-2-2-|-0--0-0-0-0-0-0-|-4--4-4-4-4-4-4-|-2--2-2-2-2-2-2-|
-0--0-0-0-0-0-0-|----------------|----------------|----------------|#/8t2##/8t1#
   pm..........      ...........      ...........      ...........

Intro: Fig. 1, 2x                      Fig. 1, 2x
Fig. 2a, 3x, then Fig. 2b, 1x       Verse: Fig. 3b, 2x, then Fig. 3a, 2x
Fig. 1, 2x                          Chorus: Fig. 2a, 5x, then Fig. 2b, 1x
Verse: Fig. 3a, 4x                  Outro: Fig. 1, 4x
Chorus: Fig. 2a, 3x, then Fig. 2b, 1x     hold out A5 (X 0 2 2 X X)
Composição: Jeff ForrestColaboração e revisão: