busca

What Went Wrong

blink-182

Tom: E
(intro)

E|----------------------------------------------------------------|
B|----------------------------------------------------------------|
G|----------------------------------------------------------------|
D|----------9---7--------------9---7------------------------------|
A|--------7-----------------7-------------------------------------|
E|----------------------------------------------------------------|

(riff 1)
E|------5-5-5-5-5-5-5-5------2-2-2-2------5-5-5-5-5-------------------------------|
B|------5-5-5-5-5-5-5-5------2-2-2-2------5-5-5-5-5-------------------------------|
G|------5-5-5-5-5-5-5-5------2-2-2-2------7-7-7-7-7-------------------------------|
D|------7-7-7-7-7-7-7-7------4-4-4-4------7-7-7-7-7-------------------------------|
A|------7-7-7-7-7-7-7-7------4-4-4-4------5-5-5-5-5-------------------------------|
E|------5-5-5-5-5-5-5-5------2-2-2-2------0-0-0-0-0-------------------------------| (2x)

(riff 2)
E|------5-5-5-5-5-5-5-5------2-2-2-2-2-2-2-2------7-7-7-7-7-7-7-7------5-5-5-5-5-5-5-5------|
B|------5-5-5-5-5-5-5-5------2-2-2-2-2-2-2-2------7-7-7-7-7-7-7-7------5-5-5-5-5-5-5-5------|
G|------5-5-5-5-5-5-5-5------2-2-2-2-2-2-2-2------9-9-9-9-9-9-9-9------7-7-7-7-7-7-7-7------|
D|------7-7-7-7-7-7-7-7------4-4-4-4-4-4-4-4------9-9-9-9-9-9-9-9------7-7-7-7-7-7-7-7------|
A|------7-7-7-7-7-7-7-7------4-4-4-4-4-4-4-4------7-7-7-7-7-7-7-7------5-5-5-5-5-5-5-5------|
E|------5-5-5-5-5-5-5-5------2-2-2-2-2-2-2-2------0-0-0-0-0-0-0-0------0-0-0-0-0-0-0-0------| (2x)

I'm Sick of always hearing
All the sad songs on the radio
All day it is there to remind
An oversensitive guy
That he's lost and alone (Yeah)

(riff 1)
E|------5-5-5-5-5-5-5-5------2-2-2-2------5-5-5-5-5-------------------------------|
B|------5-5-5-5-5-5-5-5------2-2-2-2------5-5-5-5-5-------------------------------|
G|------5-5-5-5-5-5-5-5------2-2-2-2------7-7-7-7-7-------------------------------|
D|------7-7-7-7-7-7-7-7------4-4-4-4------7-7-7-7-7-------------------------------|
A|------7-7-7-7-7-7-7-7------4-4-4-4------5-5-5-5-5-------------------------------|
E|------5-5-5-5-5-5-5-5------2-2-2-2------0-0-0-0-0-------------------------------| (2x)

(riff 2)
E|------5-5-5-5-5-5-5-5------2-2-2-2-2-2-2-2------7-7-7-7-7-7-7-7------5-5-5-5-5-5-5-5------|
B|------5-5-5-5-5-5-5-5------2-2-2-2-2-2-2-2------7-7-7-7-7-7-7-7------5-5-5-5-5-5-5-5------|
G|------5-5-5-5-5-5-5-5------2-2-2-2-2-2-2-2------9-9-9-9-9-9-9-9------7-7-7-7-7-7-7-7------|
D|------7-7-7-7-7-7-7-7------4-4-4-4-4-4-4-4------9-9-9-9-9-9-9-9------7-7-7-7-7-7-7-7------|
A|------7-7-7-7-7-7-7-7------4-4-4-4-4-4-4-4------7-7-7-7-7-7-7-7------5-5-5-5-5-5-5-5------|
E|------5-5-5-5-5-5-5-5------2-2-2-2-2-2-2-2------0-0-0-0-0-0-0-0------0-0-0-0-0-0-0-0------| (2x)

I hate our favorite restaurant
Our favorite movie, our favorite show
We would stay up all through the night
We would laugh and get high
And never answer the phone

(refrão)
E|------5-5-5-5-5-5-5-------4-4-4-4-4-4-4-----2-2-2-2-2-2-2-----5-5-5-5-5-5-5------------|
B|------5-5-5-5-5-5-5-------4-4-4-4-4-4-4-----2-2-2-2-2-2-2-----5-5-5-5-5-5-5------------|
G|------5-5-5-5-5-5-5-------4-4-4-4-4-4-4-----2-2-2-2-2-2-2-----7-7-7-7-7-7-7------------|
D|------7-7-7-7-7-7-7-------7-7-7-7-7-7-7-----4-4-4-4-4-4-4-----7-7-7-7-7-7-7------------|
A|------7-7-7-7-7-7-7-------7-7-7-7-7-7-7-----4-4-4-4-4-4-4-----5-5-5-5-5-5-5------------|
E|------5-5-5-5-5-5-5-------4-4-4-4-4-4-4-----2-2-2-2-2-2-2-----0-0-0-0-0-0-0------------| (2x)

I can't forgive, can't forget
Can't give in, what went wrong?
'Cause you said this was right
You fucked up my life

(riff 1)
E|------5-5-5-5-5-5-5-5------2-2-2-2------5-5-5-5-5-------------------------------|
B|------5-5-5-5-5-5-5-5------2-2-2-2------5-5-5-5-5-------------------------------|
G|------5-5-5-5-5-5-5-5------2-2-2-2------7-7-7-7-7-------------------------------|
D|------7-7-7-7-7-7-7-7------4-4-4-4------7-7-7-7-7-------------------------------|
A|------7-7-7-7-7-7-7-7------4-4-4-4------5-5-5-5-5-------------------------------|
E|------5-5-5-5-5-5-5-5------2-2-2-2------0-0-0-0-0-------------------------------| (2x)

(riff 2)
E|------5-5-5-5-5-5-5-5------2-2-2-2-2-2-2-2------7-7-7-7-7-7-7-7------5-5-5-5-5-5-5-5------|
B|------5-5-5-5-5-5-5-5------2-2-2-2-2-2-2-2------7-7-7-7-7-7-7-7------5-5-5-5-5-5-5-5------|
G|------5-5-5-5-5-5-5-5------2-2-2-2-2-2-2-2------9-9-9-9-9-9-9-9------7-7-7-7-7-7-7-7------|
D|------7-7-7-7-7-7-7-7------4-4-4-4-4-4-4-4------9-9-9-9-9-9-9-9------7-7-7-7-7-7-7-7------|
A|------7-7-7-7-7-7-7-7------4-4-4-4-4-4-4-4------7-7-7-7-7-7-7-7------5-5-5-5-5-5-5-5------|
E|------5-5-5-5-5-5-5-5------2-2-2-2-2-2-2-2------0-0-0-0-0-0-0-0------0-0-0-0-0-0-0-0------| (2x)

I'm sick of always hearing
Sappy love songs on the radio
This place, it's fucking cursed and it's plagued
and I can never escape
When my heart, it explodes

(refrão)
E|------5-5-5-5-5-5-5-------4-4-4-4-4-4-4-----2-2-2-2-2-2-2-----5-5-5-5-5-5-5------------|
B|------5-5-5-5-5-5-5-------4-4-4-4-4-4-4-----2-2-2-2-2-2-2-----5-5-5-5-5-5-5------------|
G|------5-5-5-5-5-5-5-------4-4-4-4-4-4-4-----2-2-2-2-2-2-2-----7-7-7-7-7-7-7------------|
D|------7-7-7-7-7-7-7-------7-7-7-7-7-7-7-----4-4-4-4-4-4-4-----7-7-7-7-7-7-7------------|
A|------7-7-7-7-7-7-7-------7-7-7-7-7-7-7-----4-4-4-4-4-4-4-----5-5-5-5-5-5-5------------|
E|------5-5-5-5-5-5-5-------4-4-4-4-4-4-4-----2-2-2-2-2-2-2-----0-0-0-0-0-0-0------------| (2x)

I can't forgive, can't forget
Can't give in, what went wrong?
'Cause you said this was right
You fucked up my life

(ponte)
E|-----------0------|------------------|------------0------|--------------------------
B|------------------|-----------2------|-------------------|--------2-----------------
G|-------2-------2--|-------2-------2--|-------2--------2--|-----2-----2--------------
D|------------------|------------------|-------------------|--------------------------
A|------------------|------------------|-------------------|--------------------------
E|---2--------------|---2--------------|--2----------------|--2-----------------------

E|----------0----|-------------------|------------0----|--------------------------------
B|---------------|-------------2-----|-----------------|--------------2-----------------
G|-------2-----2-|---------2------2--|--------2------2-|---------2---------2------------
D|---0-----------|-----0-------------|----0------------|----0---------------------------
A|---------------|-------------------|-----------------|--------------------------------
E|---------------|-------------------|-----------------|--------------------------------

E|------------0-----|----------------------|-----------------0-------|-----------------
B|------------------|-------------2--------|-------------------------|-----------2-----
G|-------2-------2--|--------2---------2---|------------2--------2---|-------2--------2
D|------------------|----------------------|-------------------------|-----------------
A|---0--------------|----0-----------------|-------2-----------------|--2--------------
E|------------------|----------------------|-------------------------|-----------------

E|---------------------------------------------------|
B|-----------2-----------2-----------2------------2--|
G|-------2-----------2-----------2------------2------|
D|---0-----------0-----------0-----------0-----------|
A|---------------------------------------------------|
E|---------------------------------------------------|

(riff 3)
E|------------2-2-2-2-2-----5-5-5-5-5-------5-5-5-5-5-5-5------------------------|
B|------------2-2-2-2-2-----5-5-5-5-5-------5-5-5-5-5-5-5------------------------|
G|------------2-2-2-2-2-----7-7-7-7-7-------5-5-5-5-5-5-5------------------------|
D|------------4-4-4-4-4-----7-7-7-7-7-------7-7-7-7-7-7-7------------------------|
A|------------4-4-4-4-4-----5-5-5-5-5-------7-7-7-7-7-7-7------------------------|
E|------------2-2-2-2-2-----0-0-0-0-0-------5-5-5-5-5-5-5------------------------| (2x)

E|------7-7-7-7-7-7-7-7------5-5-5-5-5-5-5-5------|
B|------7-7-7-7-7-7-7-7------5-5-5-5-5-5-5-5------|
G|------9-9-9-9-9-9-9-9------7-7-7-7-7-7-7-7------|
D|------9-9-9-9-9-9-9-9------7-7-7-7-7-7-7-7------|
A|------7-7-7-7-7-7-7-7------5-5-5-5-5-5-5-5------|
E|------0-0-0-0-0-0-0-0------0-0-0-0-0-0-0-0------|


(riff 1) essa parte você toca cantando
E|------5-5-5-5-5-5-5-5------2-2-2-2------5-5-5-5-5-------------------------------|
B|------5-5-5-5-5-5-5-5------2-2-2-2------5-5-5-5-5-------------------------------|
G|------5-5-5-5-5-5-5-5------2-2-2-2------7-7-7-7-7-------------------------------|
D|------7-7-7-7-7-7-7-7------4-4-4-4------7-7-7-7-7-------------------------------|
A|------7-7-7-7-7-7-7-7------4-4-4-4------5-5-5-5-5-------------------------------|
E|------5-5-5-5-5-5-5-5------2-2-2-2------0-0-0-0-0-------------------------------|  (4x)

I'm kicking out fiercely
At the world around me
What went wrong?(4x)

I'm kicking...

Clipes