What Went Wrong

Blink-182

Principal
Tom: G
(intro)

#1t1##1t2#E|----------------------------------------------------------------|
B|----------------------------------------------------------------|
G|----------------------------------------------------------------|
D|----------9---7--------------9---7------------------------------|
A|--------7-----------------7-------------------------------------|
E|----------------------------------------------------------------|#/1t2##/1t1#

#2t1#(riff 1)
#2t2#E|------5-5-5-5-5-5-5-5------2-2-2-2------5-5-5-5-5-------------------------------|
B|------5-5-5-5-5-5-5-5------2-2-2-2------5-5-5-5-5-------------------------------|
G|------5-5-5-5-5-5-5-5------2-2-2-2------7-7-7-7-7-------------------------------|
D|------7-7-7-7-7-7-7-7------4-4-4-4------7-7-7-7-7-------------------------------|
A|------7-7-7-7-7-7-7-7------4-4-4-4------5-5-5-5-5-------------------------------|
E|------5-5-5-5-5-5-5-5------2-2-2-2------0-0-0-0-0-------------------------------| (2x)#/2t2##/2t1#

#3t1#(riff 2)
#3t2#E|------5-5-5-5-5-5-5-5------2-2-2-2-2-2-2-2------7-7-7-7-7-7-7-7------5-5-5-5-5-5-5-5------|
B|------5-5-5-5-5-5-5-5------2-2-2-2-2-2-2-2------7-7-7-7-7-7-7-7------5-5-5-5-5-5-5-5------|
G|------5-5-5-5-5-5-5-5------2-2-2-2-2-2-2-2------9-9-9-9-9-9-9-9------7-7-7-7-7-7-7-7------|
D|------7-7-7-7-7-7-7-7------4-4-4-4-4-4-4-4------9-9-9-9-9-9-9-9------7-7-7-7-7-7-7-7------|
A|------7-7-7-7-7-7-7-7------4-4-4-4-4-4-4-4------7-7-7-7-7-7-7-7------5-5-5-5-5-5-5-5------|
E|------5-5-5-5-5-5-5-5------2-2-2-2-2-2-2-2------0-0-0-0-0-0-0-0------0-0-0-0-0-0-0-0------| (2x)#/3t2##/3t1#

I'm Sick of always hearing
All the sad songs on the radio
All day it is there to remind
An oversensitive guy
That he's lost and alone (Yeah)

#4t1#(riff 1)
#4t2#E|------5-5-5-5-5-5-5-5------2-2-2-2------5-5-5-5-5-------------------------------|
B|------5-5-5-5-5-5-5-5------2-2-2-2------5-5-5-5-5-------------------------------|
G|------5-5-5-5-5-5-5-5------2-2-2-2------7-7-7-7-7-------------------------------|
D|------7-7-7-7-7-7-7-7------4-4-4-4------7-7-7-7-7-------------------------------|
A|------7-7-7-7-7-7-7-7------4-4-4-4------5-5-5-5-5-------------------------------|
E|------5-5-5-5-5-5-5-5------2-2-2-2------0-0-0-0-0-------------------------------| (2x)#/4t2##/4t1#

#5t1#(riff 2)
#5t2#E|------5-5-5-5-5-5-5-5------2-2-2-2-2-2-2-2------7-7-7-7-7-7-7-7------5-5-5-5-5-5-5-5------|
B|------5-5-5-5-5-5-5-5------2-2-2-2-2-2-2-2------7-7-7-7-7-7-7-7------5-5-5-5-5-5-5-5------|
G|------5-5-5-5-5-5-5-5------2-2-2-2-2-2-2-2------9-9-9-9-9-9-9-9------7-7-7-7-7-7-7-7------|
D|------7-7-7-7-7-7-7-7------4-4-4-4-4-4-4-4------9-9-9-9-9-9-9-9------7-7-7-7-7-7-7-7------|
A|------7-7-7-7-7-7-7-7------4-4-4-4-4-4-4-4------7-7-7-7-7-7-7-7------5-5-5-5-5-5-5-5------|
E|------5-5-5-5-5-5-5-5------2-2-2-2-2-2-2-2------0-0-0-0-0-0-0-0------0-0-0-0-0-0-0-0------| (2x)#/5t2##/5t1#

I hate our favorite restaurant
Our favorite movie, our favorite show
We would stay up all through the night
We would laugh and get high
And never answer the phone

#6t1#(refrão)
#6t2#E|------5-5-5-5-5-5-5-------4-4-4-4-4-4-4-----2-2-2-2-2-2-2-----5-5-5-5-5-5-5------------|
B|------5-5-5-5-5-5-5-------4-4-4-4-4-4-4-----2-2-2-2-2-2-2-----5-5-5-5-5-5-5------------|
G|------5-5-5-5-5-5-5-------4-4-4-4-4-4-4-----2-2-2-2-2-2-2-----7-7-7-7-7-7-7------------|
D|------7-7-7-7-7-7-7-------7-7-7-7-7-7-7-----4-4-4-4-4-4-4-----7-7-7-7-7-7-7------------|
A|------7-7-7-7-7-7-7-------7-7-7-7-7-7-7-----4-4-4-4-4-4-4-----5-5-5-5-5-5-5------------|
E|------5-5-5-5-5-5-5-------4-4-4-4-4-4-4-----2-2-2-2-2-2-2-----0-0-0-0-0-0-0------------| (2x)#/6t2##/6t1#

I can't forgive, can't forget
Can't give in, what went wrong?
'Cause you said this was right
You fucked up my life

#7t1#(riff 1)
#7t2#E|------5-5-5-5-5-5-5-5------2-2-2-2------5-5-5-5-5-------------------------------|
B|------5-5-5-5-5-5-5-5------2-2-2-2------5-5-5-5-5-------------------------------|
G|------5-5-5-5-5-5-5-5------2-2-2-2------7-7-7-7-7-------------------------------|
D|------7-7-7-7-7-7-7-7------4-4-4-4------7-7-7-7-7-------------------------------|
A|------7-7-7-7-7-7-7-7------4-4-4-4------5-5-5-5-5-------------------------------|
E|------5-5-5-5-5-5-5-5------2-2-2-2------0-0-0-0-0-------------------------------| (2x)#/7t2##/7t1#

#8t1#(riff 2)
#8t2#E|------5-5-5-5-5-5-5-5------2-2-2-2-2-2-2-2------7-7-7-7-7-7-7-7------5-5-5-5-5-5-5-5------|
B|------5-5-5-5-5-5-5-5------2-2-2-2-2-2-2-2------7-7-7-7-7-7-7-7------5-5-5-5-5-5-5-5------|
G|------5-5-5-5-5-5-5-5------2-2-2-2-2-2-2-2------9-9-9-9-9-9-9-9------7-7-7-7-7-7-7-7------|
D|------7-7-7-7-7-7-7-7------4-4-4-4-4-4-4-4------9-9-9-9-9-9-9-9------7-7-7-7-7-7-7-7------|
A|------7-7-7-7-7-7-7-7------4-4-4-4-4-4-4-4------7-7-7-7-7-7-7-7------5-5-5-5-5-5-5-5------|
E|------5-5-5-5-5-5-5-5------2-2-2-2-2-2-2-2------0-0-0-0-0-0-0-0------0-0-0-0-0-0-0-0------| (2x)#/8t2##/8t1#

I'm sick of always hearing
Sappy love songs on the radio
This place, it's fucking cursed and it's plagued
and I can never escape
When my heart, it explodes

#9t1#(refrão)
#9t2#E|------5-5-5-5-5-5-5-------4-4-4-4-4-4-4-----2-2-2-2-2-2-2-----5-5-5-5-5-5-5------------|
B|------5-5-5-5-5-5-5-------4-4-4-4-4-4-4-----2-2-2-2-2-2-2-----5-5-5-5-5-5-5------------|
G|------5-5-5-5-5-5-5-------4-4-4-4-4-4-4-----2-2-2-2-2-2-2-----7-7-7-7-7-7-7------------|
D|------7-7-7-7-7-7-7-------7-7-7-7-7-7-7-----4-4-4-4-4-4-4-----7-7-7-7-7-7-7------------|
A|------7-7-7-7-7-7-7-------7-7-7-7-7-7-7-----4-4-4-4-4-4-4-----5-5-5-5-5-5-5------------|
E|------5-5-5-5-5-5-5-------4-4-4-4-4-4-4-----2-2-2-2-2-2-2-----0-0-0-0-0-0-0------------| (2x)#/9t2##/9t1#

I can't forgive, can't forget
Can't give in, what went wrong?
'Cause you said this was right
You fucked up my life

#10t1#(ponte)
#10t2#E|-----------0------|------------------|------------0------|--------------------------
B|------------------|-----------2------|-------------------|--------2-----------------
G|-------2-------2--|-------2-------2--|-------2--------2--|-----2-----2--------------
D|------------------|------------------|-------------------|--------------------------
A|------------------|------------------|-------------------|--------------------------
E|---2--------------|---2--------------|--2----------------|--2-----------------------#/10t2##/10t1#

#11t1##11t2#E|----------0----|-------------------|------------0----|--------------------------------
B|---------------|-------------2-----|-----------------|--------------2-----------------
G|-------2-----2-|---------2------2--|--------2------2-|---------2---------2------------
D|---0-----------|-----0-------------|----0------------|----0---------------------------
A|---------------|-------------------|-----------------|--------------------------------
E|---------------|-------------------|-----------------|--------------------------------#/11t2##/11t1#

#12t1##12t2#E|------------0-----|----------------------|-----------------0-------|-----------------
B|------------------|-------------2--------|-------------------------|-----------2-----
G|-------2-------2--|--------2---------2---|------------2--------2---|-------2--------2
D|------------------|----------------------|-------------------------|-----------------
A|---0--------------|----0-----------------|-------2-----------------|--2--------------
E|------------------|----------------------|-------------------------|-----------------#/12t2##/12t1#

#13t1##13t2#E|---------------------------------------------------|
B|-----------2-----------2-----------2------------2--|
G|-------2-----------2-----------2------------2------|
D|---0-----------0-----------0-----------0-----------|
A|---------------------------------------------------|
E|---------------------------------------------------|#/13t2##/13t1#

#14t1#(riff 3)
#14t2#E|------------2-2-2-2-2-----5-5-5-5-5-------5-5-5-5-5-5-5------------------------|
B|------------2-2-2-2-2-----5-5-5-5-5-------5-5-5-5-5-5-5------------------------|
G|------------2-2-2-2-2-----7-7-7-7-7-------5-5-5-5-5-5-5------------------------|
D|------------4-4-4-4-4-----7-7-7-7-7-------7-7-7-7-7-7-7------------------------|
A|------------4-4-4-4-4-----5-5-5-5-5-------7-7-7-7-7-7-7------------------------|
E|------------2-2-2-2-2-----0-0-0-0-0-------5-5-5-5-5-5-5------------------------| (2x)#/14t2##/14t1#

#15t1##15t2#E|------7-7-7-7-7-7-7-7------5-5-5-5-5-5-5-5------|
B|------7-7-7-7-7-7-7-7------5-5-5-5-5-5-5-5------|
G|------9-9-9-9-9-9-9-9------7-7-7-7-7-7-7-7------|
D|------9-9-9-9-9-9-9-9------7-7-7-7-7-7-7-7------|
A|------7-7-7-7-7-7-7-7------5-5-5-5-5-5-5-5------|
E|------0-0-0-0-0-0-0-0------0-0-0-0-0-0-0-0------|#/15t2##/15t1#


#16t1#(riff 1) essa parte você toca cantando
#16t2#E|------5-5-5-5-5-5-5-5------2-2-2-2------5-5-5-5-5-------------------------------|
B|------5-5-5-5-5-5-5-5------2-2-2-2------5-5-5-5-5-------------------------------|
G|------5-5-5-5-5-5-5-5------2-2-2-2------7-7-7-7-7-------------------------------|
D|------7-7-7-7-7-7-7-7------4-4-4-4------7-7-7-7-7-------------------------------|
A|------7-7-7-7-7-7-7-7------4-4-4-4------5-5-5-5-5-------------------------------|
E|------5-5-5-5-5-5-5-5------2-2-2-2------0-0-0-0-0-------------------------------|  (4x)#/16t2##/16t1#

I'm kicking out fiercely
At the world around me
What went wrong?(4x)

I'm kicking...
Composição: blink-182Colaboração e revisão: Lucas Granieri