busca

What´s My Age Again ?

blink-182

Tom: F
[Intro]

E|-----------------------------------------------|
B|------11----------11---------11---------11-----|
G|---11----11----11----11---11----11---11----11--|
D|-9---------------------------------------------|
A|------------9----------------------------------| x4
E|------------------------9---------11-----------|

[Verso 1]

E|-----------------------------------------------|
B|------11----------11---------11---------11-----|
G|---11----11----11----11---11----11---11----11--|
D|-9---------------------------------------------|
A|------------9----------------------------------| x3
E|------------------------9---------11-----------|

E|----------------------------------------------------------|
B|----11--------11-------11-------11---------11--------11---|
G|--11--11----11--11---11--11---11--11-----11--11----11--11-|
D|9--------------------------------------9---------9--------|
A|----------9-----------------------------------------------|
E|-------------------9---------9----------------------------|

           F#5 C#5
I took her out it
      D#5
Was a Friday night
B5         F#5  C#5
  I wore cologne to
        D#5          B5
Get the feeling right
           F#5       C#5
We started making out and
         D#5         B5
She took off my pants
           F#5           C#5
But then I turned on the TV

[Refrão]

    B5
And that's about the
                 F#5      C#5
Time she walked away from me
 D#5        B5
     Nobody likes you
            F#5    C#5
When you're twenty-three
D#5             B5
  And are still more
          F#5 C#5
Amused by TV shows
D#5              B5
What the hell is ADD?
   F#5
My friends say I
       C#5
Should act my age
D#5
  What's my age again?
C#5
  What's my age again?

E|-----------------------------------------------|
B|------11----------11---------11---------11-----|
G|---11----11----11----11---11----11---11----11--|
D|-9---------------------------------------------|
A|------------9----------------------------------|
E|------------------------9---------11-----------|

[Verso 2]

B5         F#5
Then later on
C#5      D#5
  On the drive home
B5             F#5
  I called her mom
C#5      D#5
  From a pay phone
B5         F#5
  I said I was the cops
C#5           D#5
  And your husband's in
    B5
Jail This state looks
F#5       C#5
Down on sodomy

[Refrão]

    B5
And that's about the time
                F#5   C#5
That bitch hung up on me
D#5      B5
  Nobody likes you when
       F#5    C#5
You're twenty-three
D#5             B5
  And are still more amused
   F#5         C#5
By prank phone calls
D#5              B5
What the hell is caller ID?
   F#5                  C#5
My friends say I should act
      D#5
My age What's my age again?
C#5
  What's my age again?

E|---------------------------------------|
B|---11-----11----------11------11-------|
G|------11-----11-----------11------11---|
D|-9-----------------9-------------------|
A|---------------------------------------|
E|---------------------------------------|

E|---------------------------------------|
B|---------------------------------------|
G|---------------------------------------|
D|--------8h9----------8h9----------8h9--|
A|-9-9-9--------9-9-9--------9-9-9-------|
E|---------------------------------------|

E|---------------------------------------|
B|---------------------------------------|
G|---------11---------------11-----------|
D|-----8----------8-----8----------8-----|
A|---9---9----9-9-----9---9----9-9-------| x4
E|---------------------------------------|

[Refrão]

    C#5
And that's about the time
            F#5      C#5
She walked away from me
D#5      B5
  Nobody likes you when
       F#5    C#5
You're twenty-three
D#5             B5
  And you still act like
          F#5
You're in Freshman
C#5  D#5
Year What the hell
   B5
Is wrong with me?
   F#5
My friends say I
       C#5
Should act my age
D#5
  What's my age again?

    C#5
And that's about the
               F#5     C#5
Time she broke up with me
 D#5              B5
    No one should take
              F#5     C#5
Themselves so seriously
D#5         B5
  With many years
         F#5
Ahead to fall in
C#5  D#5
Line Why would you
     B5
Wish that on me?
  F#5           C#5
I never want to act my
   D#5
Age What's my age again?
C#5
  What's my age again?

[Final] F#5  C#5  D#5  B5
        F#5  C#5  D#5  B5
        F#5  C#5  D#5  B5
        F#5  C#5  D#5  C#5  B5

Clipes