busca

Wishing Well

blink-182

Tom: F
Intro:

E|-------------------------------------------------|
B|-------------------------------------------------|
G|-10-9--5--5-5-5-5-X-X-X-X-5-5--X-X-X-X--5-5------|  (4x)
D|-x--x--x--x-x-X-X-X-X-X-X-X-X--X-X-X-X--X-X------|
A|-8--7--3--3-3-3-3-X-X-X-X-3-3--X-X-X-X--5-5------|
E|-------------------------------------------------|


Estrofe:

E|-------------------------------------------------|
B|-------------------------------------------------|
G|-10-9--5--5-5-5-5-X-X-X-X-5-5--X-X-X-X--5-5------|
D|-x--x--x--x-x-X-X-X-X-X-X-X-X--X-X-X-X--X-X------|
A|-8--7--3--3-3-3-3-X-X-X-X-3-3--X-X-X-X--5-5------|
E|-------------------------------------------------|


(Da ra ra da...)

Guitarra 1:

E|--------------------------------------------------------------|
B|--------------------------------------------------------------|
G|---5-5-5-5-----5-5-5-5-5-5-5-5----5-5-5-5----5-5-5-5-5-5-5-5--| (2x)
D|-2-----------3------------------------------------------------|
A|--------------------------------3----------5------------------|
E|--------------------------------------------------------------|

Guitarra 2:

E|-----------------------------------|
B|-----------------------------------|
G|-5-5-x-x-5-5-5-5-5-x-5-5-5-5-5-5-5-|
D|-x-x-x-x-x-x-x-x-x-x-x-x-x-x-x-x-x-|
A|-3-3-x-x-3-3-3-3-3-x-3-3-3-3-3-3-3-|
E|-----------------------------------|


Refrão:

Guitarra 1:

E|-----------------|
B|-----------------|
G|-5---------------|
D|-5---5----7----3-|
A|-3---5----7----3-|
E|-----3----5----1-|


Guitarra 2:

E|--------------------------------------|
B|--------------------------------------|
G|-5-5-5-5-x-5-5-5-5-5-x-5-5-5-5-5-5-X-X|
D|-x-x-5-x-x-x-x-x-x-x-x-x-x-x-x-x-x-X-X|
A|-3-3-3-3-x-3-3-3-3-3-x-3-3-3-3-3-3 X-X|
E|--------------------------------------|


(Intro)

(Baixo)

(Da ra ra da... )

(Refrão)

Ponte:

E|------------------------------------|
B|------------------------------------|
G|--10-5--5-9-9-7---------------------|
D|------------------------------------|
A|------------------------------------|
E|------------------------------------|

E|--------------------------------------------------------------|
B|--------------------------------------------------------------|
G|---5-5-5-5-----5-5-5-5-5-5-5-5----5-5-5-5----5-5-5-5-5-5-5-5--| (2x)
D|-2-----------3------------------------------------------------|
A|--------------------------------3----------5------------------|
E|--------------------------------------------------------------|


REFRÃO:

Guitarra 1:

E|-----------------|
B|-----------------|
G|-5---------------|
D|-5---5----7----3-|
A|-3---5----7----3-|
E|-----3----5----1-|


Guitarra 2:

E|--------------------------------------|
B|--------------------------------------|
G|-5-5-5-5-x-5-5-5-5-5-x-5-5-5-5-5-5-X-X|
D|-x-x-5-x-x-x-x-x-x-x-x-x-x-x-x-x-x-X-X|
A|-3-3-3-3-x-3-3-3-3-3-x-3-3-3-3-3-3 X-X|
E|--------------------------------------|


Refrão2

Guitarra 1:

E|-----------------|
B|-----------------|
G|-5---------------|
D|-5---5----7----3-|
A|-3---5----7----3-|
E|-----3----5----1-|


Guitarra 2:

E|--------------------------------------|
B|--------------------------------------|
G|-5--7--9------------------------------|
D|-x--x--X------------------------------|
A|-3--5--7------------------------------|
E|--------------------------------------|


Final:

E|-------------------------------------------------|
B|-------------------------------------------------|
G|-10-9--5--5-5-5-5-X-X-X-X-5-5--X-X-X-X--5-5------|
D|-x--x--x--x-x-X-X-X-X-X-X-X-X--X-X-X-X--X-X------|
A|-8--7--3--3-3-3-3-X-X-X-X-3-3--X-X-X-X--5-5------|
E|-------------------------------------------------|




                                                                                   Agora ta Melhor x)

Clipes