busca

Wrecked Him

Blink-182

Tom: A
Intro:
E|----------------------------------------------
B|----------------------------------------------
G|-----777-66-----666-77-----777-66-----666-77--
D|-444--------555--------777--------555---------
A|----------------------------------------------
E|----------------------------------------------

Verso:
E|-------------------------
B|-------------------------
G|-7777--------------------
D|-7777--5555--7777--5555--
A|-5555--5555--7777--5555--
E|-------3333--5555--3333--

Refrão:
E|-------------------------
B|-------------------------
G|-7777--------------------
D|-7777--2222--5555--7777--
A|-5555--2222--5555--7777--
E|-------0000--3333--5555--

Solo:
E|-------------------------------------------------------
B|-------------------------------------------------------
G|---------------------------------/12-12-11-11----------
D|-----------5-5-4-----7-7-7-6-6-7--------------12-12-11-
A|-5-5-5-4-5-------5-4-----------------------------------
E|-------------------------------------------------------

E|-10-10-10-10-9-9-9------------------------------------------
B|-------------------8-8-8-12-12-10-10-8-8-10-10-10-9-9-10-10-
G|------------------------------------------------------------
D|------------------------------------------------------------
A|------------------------------------------------------------
E|------------------------------------------------------------

E|--------------------------
B|--------------------------
G|-12-12-11-12-14-14-12--7--
D|--------------------------
A|--------------------------
E|--------------------------

Clipes