busca

You Fucked Up My Life

Blink-182

Tom: A
Vc tambem pode encontra essa musica com o nome de What Went Wrong

Essa musica possui 2 violoes e 1 violoncelo, mas como nem todo mundo possui um violoncelo eu vo 
coloca o trecho de viololoncelo para violao


O acorde E deve ser feito uma oitava a cima, assim:   E|--x---
                                                      B|--x---
                                                      G|--9---
                                                      D|--9---
                                                      A|--7---
                                                      E|--x---

O acorde G#5+ deve ser feito assim:  E|--x---
                                     B|--x---
                                     G|--x---
                                     D|--6---
                                     A|--7---
                                     E|--4---


Intro:
      Violao 1 fica fazendo assim ate a voz começar:
       
      E|--------------------------------
      B|---0-----------0----------------
      G|-----2-----------2--------------
      D|-2-----------0------------------
      A|--------------------------------      
      E|--------------------------------

     Violao 2: A, A, F#m, D.


Verso 1:

A                 F#m
I’m sick of always hearing

         E                     D
All this sad songs on the radio

A            F#m                                                                        
All day it is there to remind

        E
An oversensitive guy

          D
That he’s lost and alone.. Yeah



Repete intro



Verso 2:

A                   F#m
I hate our favourite restaurant

              E
Our favourite movie

           D
Our favourite show

A               F#m
We would stay up all through the night

         E
We would laugh and get high

          D
And never answer the phone


Refrao:

A         G#5+
I can’t forgive

        F#m
Can’t forget

           D
Can’t give in

           A
What went wrong?

          G#5+          F#m
'Cause you said this was right

    D
You fucked up my life


Repete intro


Verso 3:

A                 F#m
I’m sick of always hearing

      E                      D
Sappy love songs on the radio

A                       F#m
This place, it’s fucking cursed


In it’s plague

          E
And I can never escape

        D
When my heart, it explodes


Refrao

A         G#5+
I can’t forgive

        F#m
Can’t forget

           D
Can’t give in

           A
What went wrong?

          G#5+          F#m
'Cause you said this was right

    D
You fucked up my life


Bridge:


E|----------------------------------------------------------------------------------------------
B|------4-------2------4-------2-------4-------2-------4-------2-------4-------2-----4-------2--
G|----2---2---2---2--2---2---2---2---2---2---2---2---2---2---2---2---2---2---2-----2---2---2---2
D|---------------------------------0-------0-------0-------0------------------------------------
A|-----------------------------------------------------------------0-------0-----2-------2------
E|--2-------2-------2------2--------------------------------------------------------------------

E|------------------------------
B|------2-----2-----2-22222-----
G|----2-----2-----2-2-22222-----
D|--0-----0-----0-----00000-----
A|------------------------------
E|------------------------------

Ai o violao 2 fica fazendo isso: F#m, D, A, A, F#m, D, A, A, E, D

E vem a parte do violoncelo:

E|-----------------------------------------------------
B|-----------------------------------------------------
G|-----------------------------------------------------
D|--7---6-7-9-7---11-12-14-7---6-7-9-11----7---9-7-----
A|-------------------------------------------7---------
E|-----------------------------------------------------


Final:

    A          F#m
I’m kicking out fiercely

    D          A
At the world around me

F#m         D
What went wrong?

    A           F#m
I’m kicking out fiercely

    D          A
At the world around me

F#m         D
What went wrong?

    A          F#m
I’m kicking out fiercely

   D           A 
At the world around me

F#m         D
What went wrong?

    A          F#m
I’m kicking out fiercely

   D           A
At the world around me

F#m         D
What went wrong?

    A
I’m kicking…



Eh isso ai, espero q nao tenha nenhum erro e q vcs entendam

Clipes

Cifra Club Pro

Aproveite o Cifra Club com benefícios exclusivos e sem anúncios
7 dias grátis
Cifra Club Pro
Aproveite o Cifra Club com benefícios exclusivos e sem anúncios
7 dias grátis