You Fucked Up My Life

Blink-182

Principal
A5
12
X022XX
B5
134
X244XX
C#5
134
X466XX
D5
134
X577XX
E5
12
022XXX
F#5
134
244XXX
Tom: G
obs: toquem a musica ouvindo a original ou intão não irão intender nadaaaaaa...
o power acord deve ser esecutado com varredurad da palheta e não com pequenas palhetadas!!!
a afinação eu não sei exatamente mas meu professor disse que deve ser meio ou um tom abaixo do (E;B;G;D;A;E)
flows!

#1t1#Solo da intro: 
#1t2#e|--------------------------------------------------|
B|--------------------------------------------------|
G|----------4---2---------------4---2---------------| 
D|------2-------------------2-----------------------|   
A|--------------------------------------------------|
E|--------------------------------------------------|#/1t2##/1t1#

Façam este power acord aqui abaixo duas vezes antes do Thomas começar a cantar!!!

#2t1#      A5
#2t2#e|-------x---|            
B|-------x---|
G|-------x---| 
D|-------7---| 
A|-------7---|
E|-------5---|#/2t2##/2t1#
#3t1#      B5
#3t2#e|-------x---|
B|-------x---|
G|-------x---| 
D|-------4---| 
A|-------4---|
E|-------2---|#/3t2##/3t1#
#4t1#      D5
#4t2#e|-------x---|
B|-------x---|
G|-------7---| 
D|-------7---| 
A|-------5---|
E|-------x---|#/4t2##/4t1#


com o Tom cantando vc começa: isso ... 2X

#5t1#      D5
#5t2#e|-------x---|            
B|-------x---|
G|-------x---| 
D|-------7---| 
A|-------7---|
E|-------5---|#/5t2##/5t1#
#6t1#     F#5
#6t2#e|-------x---|
B|-------x---|
G|-------x---| 
D|-------4---| 
A|-------4---|
E|-------2---|#/6t2##/6t1#
#7t1#      E5
#7t2#e|-------x---|
B|-------x---|
G|-------9---| 
D|-------9---| 
A|-------7---|
E|-------x---|#/7t2##/7t1#
     
#8t1#       D5
#8t2#e|-------x---|
B|-------x---|
G|-------7---| 
D|-------7---| 
A|-------5---|
E|-------x---|#/8t2##/8t1#

#9t1#sem o Tom cantar: isso ... 2X
      D5
#9t2#e|-------x---|            
B|-------x---|
G|-------x---| 
D|-------7---| 
A|-------7---|
E|-------5---|#/9t2##/9t1#
#10t1#     B5
#10t2#e|-------x---|
B|-------x---|
G|-------x---| 
D|-------4---| 
A|-------4---|
E|-------2---|#/10t2##/10t1#
#11t1#     D5
#11t2#e|-------x---|
B|-------x---|
G|-------7---| 
D|-------7---| 
A|-------5---|
E|-------x---|#/11t2##/11t1#

#12t1#com o Tom cantando: isso ... 2X
      D5
#12t2#e|-------x---|            
B|-------x---|
G|-------x---| 
D|-------7---| 
A|-------7---|
E|-------5---|#/12t2##/12t1#
#13t1#     B5
#13t2#e|-------x---|
B|-------x---|
G|-------x---| 
D|-------4---| 
A|-------4---|
E|-------2---|#/13t2##/13t1#
#14t1#    E5
#14t2#e|-------x---|
B|-------x---|
G|-------9---| 
D|-------9---| 
A|-------7---|
E|-------x---|#/14t2##/14t1#
#15t1#     D5
#15t2#e|-------x---|
B|-------x---|
G|-------7---| 
D|-------7---| 
A|-------5---|
E|-------x---|#/15t2##/15t1#

#16t1#isso tbm ... 2X
     D5
#16t2#e|-------x---|
B|-------x---|
G|-------x---| 
D|-------7---| 
A|-------7---|
E|-------5---|#/16t2##/16t1#
#17t1#     C#5
#17t2#e|-------x---|
B|-------x---|
G|-------x---| 
D|-------7---| 
A|-------7---|
E|-------4---|#/17t2##/17t1#
#18t1#      B5
#18t2#e|-------x---|
B|-------x---|
G|-------x---| 
D|-------4---| 
A|-------4---|
E|-------2---|#/18t2##/18t1#
#19t1#      D5
#19t2#e|-------x---|
B|-------x---|
G|-------7---| 
D|-------7---| 
A|-------5---|
E|-------x---|#/19t2##/19t1#

#20t1#sem o Tom cantar: isso ... 2X
      D5
#20t2#e|-------x---|            
B|-------x---|
G|-------x---| 
D|-------7---| 
A|-------7---|
E|-------5---|#/20t2##/20t1#
#21t1#     B5
#21t2#e|-------x---|
B|-------x---|
G|-------x---| 
D|-------4---| 
A|-------4---|
E|-------2---|#/21t2##/21t1#
#22t1#     D5
#22t2#e|-------x---|
B|-------x---|
G|-------7---| 
D|-------7---| 
A|-------5---|
E|-------x---|#/22t2##/22t1#

#23t1#com o Tom cantando: isso ... 2X
      D5
#23t2#e|-------x---|            
B|-------x---|
G|-------x---| 
D|-------7---| 
A|-------7---|
E|-------5---|#/23t2##/23t1#
#24t1#     B5
#24t2#e|-------x---|
B|-------x---|
G|-------x---| 
D|-------4---| 
A|-------4---|
E|-------2---|#/24t2##/24t1#
#25t1#    E5
#25t2#e|-------x---|
B|-------x---|
G|-------9---| 
D|-------9---| 
A|-------7---|
E|-------x---|#/25t2##/25t1#
#26t1#     D5
#26t2#e|-------x---|
B|-------x---|
G|-------7---| 
D|-------7---| 
A|-------5---|
E|-------x---|#/26t2##/26t1#

#27t1#isso tbm ... 2X
     D5
#27t2#e|-------x---|
B|-------x---|
G|-------x---| 
D|-------7---| 
A|-------7---|
E|-------5---|#/27t2##/27t1#
#28t1#     C#5
#28t2#e|-------x---|
B|-------x---|
G|-------x---| 
D|-------7---| 
A|-------7---|
E|-------4---|#/28t2##/28t1#
#29t1#      B5
#29t2#e|-------x---|
B|-------x---|
G|-------x---| 
D|-------4---| 
A|-------4---|
E|-------2---|#/29t2##/29t1#
#30t1#      D5
#30t2#e|-------x---|
B|-------x---|
G|-------7---| 
D|-------7---| 
A|-------5---|
E|-------x---|#/30t2##/30t1#

#31t1#O solinhoOoOooO ::Sem o vocal do Tom 
#31t2#e|-----------0---------|---------------------|-------------0---------|---------------
B|---------------------|-------------2-------|-----------------------|--------2------
G|-------2-------2-----|-------2-------2-----|-------2--------2------|-----2-----2---
D|---------------------|---------------------|-----------------------|---------------
A|---------------------|---------------------|-----------------------|---------------
E|---2-----------------|---2-----------------|---2-------------------|---2-----------#/31t2##/31t1#

#32t1##32t2#e|----------0--------|-----------------------|--------------0--------|----------------------
B|-------------------|---------------2-------|-----------------------|--------------2-------
G|-------2-----2-----|---------2--------2----|--------2--------2-----|---------2---------2--
D|---0---------------|------0----------------|-----0-----------------|----0-----------------
A|-------------------|-----------------------|-----------------------|----------------------
E|-------------------|-----------------------|-----------------------|----------------------
-#/32t2##/32t1#
#33t1##33t2#e|--------------0-------|------------------------|-----------------0--------|------------------
B|----------------------|--------------2---------|---------------------------|-----------2-----
G|-------2--------2---  |--------2---------2-----|------------2--------2---|-------2--------2--
D|----------------------|------------------------|---------------------------|-----------------
A|----0---------------- |----0-------------------|-------2------------------|--2---------------
E|----------------------|------------------------|---------------------------|-----------------#/33t2##/33t1#

#34t1##34t2#e|----------------------------------------------------|
B|-----------2-----------2-----------2------------2---|
G|-------2-----------2-----------2------------2-------|
D|---0-----------0-----------0-----------0------------|
A|----------------------------------------------------|
E|----------------------------------------------------|#/34t2##/34t1#


#35t1#Depois façam isso até o fim com o Tom cantando: vai dar mais ou menos ...  8X
        D5
#35t2#e|-------x---|            
B|-------x---|
G|-------x---| 
D|-------7---| 
A|-------7---|
E|-------5---|#/35t2##/35t1#
#36t1#      B5
#36t2#e|-------x---|
B|-------x---|
G|-------x---| 
D|-------4---| 
A|-------4---|
E|-------2---|#/36t2##/36t1#
#37t1#       D5
#37t2#e|-------x---|
B|-------x---|
G|-------7---| 
D|-------7---| 
A|-------5---|
E|-------x---|#/37t2##/37t1#
Composição: Colaboração e revisão: Alan Silva