busca

You Fucked Up My Life

Blink-182

Tom: B
obs: toquem a musica ouvindo a original ou intão não irão intender nadaaaaaa...
o power acord deve ser esecutado com varredurad da palheta e não com pequenas palhetadas!!!
a afinação eu não sei exatamente mas meu professor disse que deve ser meio ou um tom abaixo do (E;B;G;D;A;E)
flows!

Solo da intro: 
e|--------------------------------------------------|
B|--------------------------------------------------|
G|----------4---2---------------4---2---------------| 
D|------2-------------------2-----------------------|   
A|--------------------------------------------------|
E|--------------------------------------------------|

Façam este power acord aqui abaixo duas vezes antes do Thomas começar a cantar!!!

      A5
e|-------x---|            
B|-------x---|
G|-------x---| 
D|-------7---| 
A|-------7---|
E|-------5---|

      B5
e|-------x---|
B|-------x---|
G|-------x---| 
D|-------4---| 
A|-------4---|
E|-------2---|

      D5
e|-------x---|
B|-------x---|
G|-------7---| 
D|-------7---| 
A|-------5---|
E|-------x---|


com o Tom cantando vc começa: isso ... 2X

      D5
e|-------x---|            
B|-------x---|
G|-------x---| 
D|-------7---| 
A|-------7---|
E|-------5---|

     F#5
e|-------x---|
B|-------x---|
G|-------x---| 
D|-------4---| 
A|-------4---|
E|-------2---|

      E5
e|-------x---|
B|-------x---|
G|-------9---| 
D|-------9---| 
A|-------7---|
E|-------x---|
     
       D5
e|-------x---|
B|-------x---|
G|-------7---| 
D|-------7---| 
A|-------5---|
E|-------x---|

sem o Tom cantar: isso ... 2X
      D5
e|-------x---|            
B|-------x---|
G|-------x---| 
D|-------7---| 
A|-------7---|
E|-------5---|

     B5
e|-------x---|
B|-------x---|
G|-------x---| 
D|-------4---| 
A|-------4---|
E|-------2---|

     D5
e|-------x---|
B|-------x---|
G|-------7---| 
D|-------7---| 
A|-------5---|
E|-------x---|

com o Tom cantando: isso ... 2X
      D5
e|-------x---|            
B|-------x---|
G|-------x---| 
D|-------7---| 
A|-------7---|
E|-------5---|

     B5
e|-------x---|
B|-------x---|
G|-------x---| 
D|-------4---| 
A|-------4---|
E|-------2---|

    E5
e|-------x---|
B|-------x---|
G|-------9---| 
D|-------9---| 
A|-------7---|
E|-------x---|

     D5
e|-------x---|
B|-------x---|
G|-------7---| 
D|-------7---| 
A|-------5---|
E|-------x---|

isso tbm ... 2X
     D5
e|-------x---|
B|-------x---|
G|-------x---| 
D|-------7---| 
A|-------7---|
E|-------5---|

     C#5
e|-------x---|
B|-------x---|
G|-------x---| 
D|-------7---| 
A|-------7---|
E|-------4---|

      B5
e|-------x---|
B|-------x---|
G|-------x---| 
D|-------4---| 
A|-------4---|
E|-------2---|

      D5
e|-------x---|
B|-------x---|
G|-------7---| 
D|-------7---| 
A|-------5---|
E|-------x---|

sem o Tom cantar: isso ... 2X
      D5
e|-------x---|            
B|-------x---|
G|-------x---| 
D|-------7---| 
A|-------7---|
E|-------5---|

     B5
e|-------x---|
B|-------x---|
G|-------x---| 
D|-------4---| 
A|-------4---|
E|-------2---|

     D5
e|-------x---|
B|-------x---|
G|-------7---| 
D|-------7---| 
A|-------5---|
E|-------x---|

com o Tom cantando: isso ... 2X
      D5
e|-------x---|            
B|-------x---|
G|-------x---| 
D|-------7---| 
A|-------7---|
E|-------5---|

     B5
e|-------x---|
B|-------x---|
G|-------x---| 
D|-------4---| 
A|-------4---|
E|-------2---|

    E5
e|-------x---|
B|-------x---|
G|-------9---| 
D|-------9---| 
A|-------7---|
E|-------x---|

     D5
e|-------x---|
B|-------x---|
G|-------7---| 
D|-------7---| 
A|-------5---|
E|-------x---|

isso tbm ... 2X
     D5
e|-------x---|
B|-------x---|
G|-------x---| 
D|-------7---| 
A|-------7---|
E|-------5---|

     C#5
e|-------x---|
B|-------x---|
G|-------x---| 
D|-------7---| 
A|-------7---|
E|-------4---|

      B5
e|-------x---|
B|-------x---|
G|-------x---| 
D|-------4---| 
A|-------4---|
E|-------2---|

      D5
e|-------x---|
B|-------x---|
G|-------7---| 
D|-------7---| 
A|-------5---|
E|-------x---|

O solinhoOoOooO ::Sem o vocal do Tom 
e|-----------0---------|---------------------|-------------0---------|---------------
B|---------------------|-------------2-------|-----------------------|--------2------
G|-------2-------2-----|-------2-------2-----|-------2--------2------|-----2-----2---
D|---------------------|---------------------|-----------------------|---------------
A|---------------------|---------------------|-----------------------|---------------
E|---2-----------------|---2-----------------|---2-------------------|---2-----------

e|----------0--------|-----------------------|--------------0--------|----------------------
B|-------------------|---------------2-------|-----------------------|--------------2-------
G|-------2-----2-----|---------2--------2----|--------2--------2-----|---------2---------2--
D|---0---------------|------0----------------|-----0-----------------|----0-----------------
A|-------------------|-----------------------|-----------------------|----------------------
E|-------------------|-----------------------|-----------------------|----------------------
-
e|--------------0-------|------------------------|-----------------0--------|------------------
B|----------------------|--------------2---------|---------------------------|-----------2-----
G|-------2--------2---  |--------2---------2-----|------------2--------2---|-------2--------2--
D|----------------------|------------------------|---------------------------|-----------------
A|----0---------------- |----0-------------------|-------2------------------|--2---------------
E|----------------------|------------------------|---------------------------|-----------------

e|----------------------------------------------------|
B|-----------2-----------2-----------2------------2---|
G|-------2-----------2-----------2------------2-------|
D|---0-----------0-----------0-----------0------------|
A|----------------------------------------------------|
E|----------------------------------------------------|


Depois façam isso até o fim com o Tom cantando: vai dar mais ou menos ...  8X
        D5
e|-------x---|            
B|-------x---|
G|-------x---| 
D|-------7---| 
A|-------7---|
E|-------5---|

      B5
e|-------x---|
B|-------x---|
G|-------x---| 
D|-------4---| 
A|-------4---|
E|-------2---|

       D5
e|-------x---|
B|-------x---|
G|-------7---| 
D|-------7---| 
A|-------5---|
E|-------x---|

Clipes

Cifra Club Pro

Aproveite o Cifra Club com benefícios exclusivos e sem anúncios
7 dias grátis
Cifra Club Pro
Aproveite o Cifra Club com benefícios exclusivos e sem anúncios
7 dias grátis