busca

You Fucked Up My Life

blink-182

Tom: E
   INTRO
E |------------------------|
B |------------------------|
G |----4---2---------------| 2x
D |--2---------------------|
A |------------------------|
E |------------------------|

A    F#    D  (2x)


      VERSE
A                 F#                E                   D
Im sick of always hearing all those sad songs on the radio
A             F#                      E                     D
All day it is there to remind an over sensitive guy that is lost and alone. Yeah

A    F#    D   (2x)

A                   F#                       E                    D
I hate our favorite restaurant, our favorite movie our favorite show
A                F#                             E                            D
We would stay up all through the night we would laugh and get high and never ans

    
    Chorus 
A         Ab            F#             D
I cant forgive, Cant forget, Cant give in
          A               Ab            F#
What went wrong cause you said this was right?
    D            A
You fucked up my life.


A  F#  D (2x)
Then play one part of the verse and one part of the Chorus
Then go to Solo  






     SOLO
E |------0--------------0------------------0----------------0-------------|
B |-------------2----------------2------------------2---------------2-----|
G |----2---2--2---2---2---2----2---2-----2---2----2---2---2---2---2---2---|
D |------------------------------------0--------0--------0------0---------|
A |-----------------------------------------------------------------------|
E |--2-------2------2-------2---------------------------------------------|


E |------0----------------0-----------------------------------------------|
B |--------------2----------------2--------2------2-----2---2222222222----|
G |----2---2---2---2----2---2---2---2----2------2-----2-----2222222222----|
D |------------------------------------0------0-----0-------0000000000----|
A |--0-------0--------2--------2------------------------------------------|
E |-----------------------------------------------------------------------|


F#   D   A 
F#   D   A
E    D  
 

   A           F#          D          A         F#            D
Im kicking how fiercely at the world around me, what went wrong

END on A

Clipes