You Fucked Up My Life

Blink-182

Principal
A
123
X02220
D
123
XX0232
E
123
022100
F#
234
244322
G#
234
431114
Tom: G
#1t1#   INTRO
#1t2#E |------------------------|
B |------------------------|
G |----4---2---------------| 2x
D |--2---------------------|
A |------------------------|
E |------------------------|#/1t2##/1t1#

A    F#    D  (2x)


      VERSE
A                 F#                E                   D
Im sick of always hearing all those sad songs on the radio
A             F#                      E                     D
All day it is there to remind an over sensitive guy that is lost and alone. Yeah

A    F#    D   (2x)

A                   F#                       E                    D
I hate our favorite restaurant, our favorite movie our favorite show
A                F#                             E                            D
We would stay up all through the night we would laugh and get high and never ans

    
    Chorus 
A         G#            F#             D
I cant forgive, Cant forget, Cant give in
          A               G#            F#
What went wrong cause you said this was right?
    D            A
You fucked up my life.


A  F#  D (2x)
Then play one part of the verse and one part of the Chorus
Then go to Solo  






#2t1#     SOLO
#2t2#E |------0--------------0------------------0----------------0-------------|
B |-------------2----------------2------------------2---------------2-----|
G |----2---2--2---2---2---2----2---2-----2---2----2---2---2---2---2---2---|
D |------------------------------------0--------0--------0------0---------|
A |-----------------------------------------------------------------------|
E |--2-------2------2-------2---------------------------------------------|#/2t2##/2t1#


#3t1##3t2#E |------0----------------0-----------------------------------------------|
B |--------------2----------------2--------2------2-----2---2222222222----|
G |----2---2---2---2----2---2---2---2----2------2-----2-----2222222222----|
D |------------------------------------0------0-----0-------0000000000----|
A |--0-------0--------2--------2------------------------------------------|
E |-----------------------------------------------------------------------|#/3t2##/3t1#


F#   D   A 
F#   D   A
E    D  
 

   A           F#          D          A         F#            D
Im kicking how fiercely at the world around me, what went wrong

END on A
Composição: Colaboração e revisão: Ivan Neto