busca

Zulu

blink-182

Tom: A
Intro:

    A5
E|---------------------------|
B|---------------------------|
G|-2~~-----------------------|
D|-2~~-----------------------|
A|-0~~-----------------------|
E|---------------------------|

Base: A5 / F#5 / E5 / D5

E|---------------------------------------------------------------------|
B|---------------------------------------------------------------------|
G|---------------------------------------------------------------------|
D|-7-7-7-----------7-7-7------------7-7-7------------------------------|        2x
A|-------4-4-4-5-5-------4-4-4-5-5---------4-4-4-5-5--4-4-5-5-7-7-7-7--|
E|---------------------------------------------------------------------|


Verso:

    A5                                    A5
E|------------------------------------------------------------------------|
B|------------------------------------------------------------------------|
G|--------------------7-7-7-6-6-6------------------------7-7-7-6-6-6------|
D|-7-7-7-7-7-7-7-7----------------7-7----7-7-7-7-7-7-7-7-------------7-7--|
A|-7-7-7-7-7-7-7-7-----------------------7-7-7-7-7-7-7-7------------------|
E|-5-5-5-5-5-5-5-5-----------------------5-5-5-5-5-5-5-5------------------|
    A5                                    E5                                     2x
E|------------------------------------------------------------------------|
B|------------------------------------------------------------------------|
G|--------------------7-7-7-6-6-6--------9------9------7-7-7-6-6-6--------|
D|-7-7-7-7-7-7-7-7----------------7-7----9-X-X--9-X-X--------------7-7----|
A|-7-7-7-7-7-7-7-7-----------------------7-X-X--7-X-X---------------------|
E|-5-5-5-5-5-5-5-5-------------------------X-X----X-X---------------------|



Refrão:
      
    A5                F#5                E5                D5
E|------------------------------------------------------------------------|
B|------------------------------------------------------------------------|
G|--------------------------------------9-9-9-9-9-9-9-9---7-7-7-7-7-7-7-7-|
D|-7-7-7-7-7-7-7-7---4-4-4-4-4-4-4-4----9-9-9-9-9-9-9-9---7-7-7-7-7-7-7-7-|     3x
A|-7-7-7-7-7-7-7-7---4-4-4-4-4-4-4-4----7-7-7-7-7-7-7-7---5-5-5-5-5-5-5-5-|
E|-5-5-5-5-5-5-5-5---2-2-2-2-2-2-2-2--------------------------------------|

    A5                F#5                E5
E|-----------------------------------------|
B|-----------------------------------------|
G|--------------------------------------9--|
D|-7-7-7-7-7-7-7-7---4-4-4-4-4-4-4-4----9--|     
A|-7-7-7-7-7-7-7-7---4-4-4-4-4-4-4-4----7--|
E|-5-5-5-5-5-5-5-5---2-2-2-2-2-2-2-2-------|


Intro:

Base: A5 / F#5 / E5 / D5

E|---------------------------------------------------------------------|
B|---------------------------------------------------------------------|
G|---------------------------------------------------------------------|
D|-7-7-7-----------7-7-7------------7-7-7------------------------------|        2x
A|-------4-4-4-5-5-------4-4-4-5-5---------4-4-4-5-5--4-4-5-5-7-7-7-7--|
E|---------------------------------------------------------------------|



Verso:

    A5                                    A5
E|------------------------------------------------------------------------|
B|------------------------------------------------------------------------|
G|--------------------7-7-7-6-6-6------------------------7-7-7-6-6-6------|
D|-7-7-7-7-7-7-7-7----------------7-7----7-7-7-7-7-7-7-7-------------7-7--|
A|-7-7-7-7-7-7-7-7-----------------------7-7-7-7-7-7-7-7------------------|
E|-5-5-5-5-5-5-5-5-----------------------5-5-5-5-5-5-5-5------------------|

    A5                                    E5                                     2x
E|------------------------------------------------------------------------|
B|------------------------------------------------------------------------|
G|--------------------7-7-7-6-6-6--------9------9------7-7-7-6-6-6--------|
D|-7-7-7-7-7-7-7-7----------------7-7----9-X-X--9-X-X--------------7-7----|
A|-7-7-7-7-7-7-7-7-----------------------7-X-X--7-X-X---------------------|
E|-5-5-5-5-5-5-5-5-------------------------X-X----X-X---------------------|



Refrão:
      
     A5              F#5                 E5                D5
E|------------------------------------------------------------------------|
B|------------------------------------------------------------------------|
G|--------------------------------------9-9-9-9-9-9-9-9---7-7-7-7-7-7-7-7-|
D|-7-7-7-7-7-7-7-7---4-4-4-4-4-4-4-4----9-9-9-9-9-9-9-9---7-7-7-7-7-7-7-7-|     3x
A|-7-7-7-7-7-7-7-7---4-4-4-4-4-4-4-4----7-7-7-7-7-7-7-7---5-5-5-5-5-5-5-5-|
E|-5-5-5-5-5-5-5-5---2-2-2-2-2-2-2-2--------------------------------------|

    A5                F#5                E5
E|-----------------------------------------|
B|-----------------------------------------|
G|--------------------------------------9--|
D|-7-7-7-7-7-7-7-7---4-4-4-4-4-4-4-4----9--|     
A|-7-7-7-7-7-7-7-7---4-4-4-4-4-4-4-4----7--|
E|-5-5-5-5-5-5-5-5---2-2-2-2-2-2-2-2-------|


Ponte: 

Base: A5 / F#5 / E5 / D5

E|---------------------------------------------------------------------|
B|---------------------------------------------------------------------|
G|---------------------------------------------------------------------|
D|-7-7-7-----------7-7-7------------7-7-7------------------------------|        4x
A|-------4-4-4-5-5-------4-4-4-5-5---------4-4-4-5-5--4-5-7-5-4-0-0-0--|
E|---------------------------------------------------------------------|



Refrão:
      
     A5               F#5                E5                D5
E|------------------------------------------------------------------------|
B|------------------------------------------------------------------------|
G|--------------------------------------9-9-9-9-9-9-9-9---7-7-7-7-7-7-7-7-|
D|-7-7-7-7-7-7-7-7---4-4-4-4-4-4-4-4----9-9-9-9-9-9-9-9---7-7-7-7-7-7-7-7-|     3x
A|-7-7-7-7-7-7-7-7---4-4-4-4-4-4-4-4----7-7-7-7-7-7-7-7---5-5-5-5-5-5-5-5-|
E|-5-5-5-5-5-5-5-5---2-2-2-2-2-2-2-2--------------------------------------|

     A5               F#5                E5
E|-----------------------------------------|
B|-----------------------------------------|
G|--------------------------------------9--|
D|-7-7-7-7-7-7-7-7---4-4-4-4-4-4-4-4----9--|     
A|-7-7-7-7-7-7-7-7---4-4-4-4-4-4-4-4----7--|
E|-5-5-5-5-5-5-5-5---2-2-2-2-2-2-2-2-------|


Final:
     D5  A5
E|----------|
B|----------|
G|--7-------|
D|--7----7--|     
A|--5----7--|
E|-------5--|

Clipes