busca

Redemption Song

Bob Marley & The Wailers

Tom: G
Intro:

E|---------------------------------------------------|
B|---------------------------------------------------|
G|---------------------------------------------------|
D|-----------------2--0------------------------------|
A|------0--2----3--------2---------------------------|
E|-2----------2--------------------------------------|

E|---------------------------------------------------|
B|---------------------------------------------------|
G|---------------------------------------------------|
D|----------0----------------------------------------|
A|-----0--2---2-3-2-0--------------------------------|
E|-2------------------3------------------------------|

Obs.: Repetir intro duas vezes.

       G                  G6/E
  Old Pirates, yes, they rob I.
 C             G11/B      Am  Am7/E
 Sold I to the merchant ships
G                     Em     C                D       D5(9) D
 Minutes after they took I   from the bottom less pit.
        G        G6/E
But my hand was made strong
C        G11/B           Am  Am7/E
 By the hand of the Almighty.
    G                   Em    C      D    ( D D5(9) ) <- puxada para cima 6 vezes
We forward in this generation  triumphantly.

Refrão:
                   G    C   D             G
Won't you help to sing   these songs of freedom?
       C     D     Em
'Cause all I ever have,
C    D    G                  C G11/B
 Redemption songs. (3x)

       G                            Em
Emancipate yourselves from mental slavery,
             C           G11/B   Am  Am7/E
None but ourselves can free our minds.
         G              Em
Have no fear for atomic energy,
                 C                D   D5(9) D
'Cause none of them can stop the time.
     G                         Em
How long shall they kill our prophets
           C     G11/B    Am Am7/E
While we stand aside and look?
           G               Em
Yes, some say it's just a part of it.
       C                  D  ( D D5(9) ) <- puxada para cima 6 vezes
We've got to fulfill the book.

Refrão:
                   G    C         D         G
Won't you help to sing    these songs of freedom?
       C     D     Em
'Cause all I ever have,
C    D    G
 Redemption songs. (3x)
C    D         G
    Songs of freedom.

Clipes