Get Up Stand Up

Bob Marley

Tom: G
#1t1#intro 
#1t2# -----------------------------------
 -----------------------------------
 -----------------------------------
 -----------------------------------
 -----------------------------------
 -x-6-6-x-6-6---x-6-8---x-6-6-x-6-6-#/1t2##/1t1#

this is played twice 


tthe other guitar plays Cm for the rest of the song

#2t1#Cm looks like this...
#2t2#                     -8-
                     -8-
                     -8-
                     -6-
                     -6-
                     -8-#/2t2##/2t1#

this is played twice 

all notes played wityh right hand
palm mute

#3t1#chorus riff
#3t2#-----|-------------|-----------|-------------|-------------
-----|-------------|-----------|-------------|-------------
-----|-------------|-----------|-------------|-------------
-----|-5-----------|---5-------|-5-----------|-------5---3-
-----|---6-5-6-5---|-6---------|---6-5-6-5---|-----6---6---
-6-8-|-----------8-|-----3-6-8-|-----------8-|-8-8---------#/3t2##/3t1#


#4t1#verse riff
#4t2#-----------|------------
-----------|------------
---------7-|------------
-------5---|-8-----5----
---6-8-----|---6-8------
-8---------|--------6-8-#/4t2##/4t1#
Composição: Bob Marley / Peter ToshColaboração e revisão: