busca

Mix Up Mix Up

Bob Marley

                              MIX UP , MIX UP

                          album:  CONFRONTATION


        INTRO and CHORUS    
G ||-------------------------------------------------------||
D ||------------------------------3--2--2-O------55--333---||
A ||-3----------------3------------------------------------||
E ||------5-3-5---------5--3-5-----------------------------||

 
G ||-----------------------------------------------||
D ||------------------------------3--2--2-O--------||
A ||-3----------------3----------------------------||
E ||------5-3-5---------5--3-5---------------------||


corrections and stuff to:
* 

Clipes