busca

No Water

Bob Marley

    Tabbed by - mattydread
    E-mail - *

     riff 1;
  G|------------------------------------------------------------------------|
  D|-----------4--9-7-9---------4--9-7-9---------4--9-7-9---------4--9-7-9--|
  A|---5-5-5-------------5-5-5------------5-5-5-------------5-5-5-----------|
  E|------------------------------------------------------------------------|

     riff 2;
  G|------------------------------------------------------------------------|
  D|------------------------------------------------------------------------|
  A|-----------4--7-9-7---------4--7-9-7---------4--7-9-7---------4--7-9-7--|
  E|---5-5-5-------------5-5-5------------5-5-5-------------5-5-5-----------|

    repeat thro'out

Clipes