More Than A Feeling

Boston

A
123
X02220
A4
123
X02230
A5
X0P22XX
B5
134
X244XX
C5
134
81010XXX
C9
123
X30033
D
123
XX0232
D#5
134
X688XX
D/F#
123
2X023X
D5
134
X577XX
D9
12
XX0230
E5
134
X799XX
Em7
123
022030
G
123
3X0033
G/B
123
X20033
G5
134
355XXX
Tom: G
Introdução: D  C9  G/B  G

(Violão)

#1t1#     D                C9    G/B   G
#1t2#E|-------3---2-------3-----3----------------|
B|---3---------3-------3-----3---3----------|
G|-----2---2-----0--------------------------|   (4x)
D|-0----------------------------------------|
A|-----------------3-----2------------------|
E|-----------------------------3------------|#/1t2##/1t1#

(Guitarra)

#2t1#  H.N   .    .   .    .
#2t2#E|-----------------------------------------------------|
B|-7------------------7--------------------------------|
G|-7------------------7--------------------------------|
D|-----------5-----------------------------------------|
A|------5----5---5-------------------------------------|
E|-----------------------------------------------------|#/2t2##/2t1#


Primeira Parte:

(Violão)

#3t1#      D               C9    G/B   G
#3t2#E|-------3---2-------3-----3----------------|
B|---3---------3-------3-----3---3----------|
G|-----2---2-----0--------------------------|   (3x)
D|-0----------------------------------------|
A|-----------------3-----2------------------|
E|-----------------------------3------------|#/3t2##/3t1#

#4t1#      D
#4t2#E|-------3---2------------------------------|
B|---3---------3----------------------------|
G|-----2---2-----0--------------------------|
D|-0----------------------------------------|
A|------------------------------------------|
E|------------------------------------------|#/4t2##/4t1#

#5t1#      C9              G/B
#5t2#E|---------0---------------0----------------|
B|---3---3---3---3-----3-----3---3----------|
G|-----0-------0-----0---0-----0------------|
D|------------------------------------------|
A|-3---------------2------------------------|
E|------------------------------------------|#/5t2##/5t1#

   D
I looked out this morning
      C9         G/B  G
And the sun was gone
 D
Turned on some music
     C9     G/B     G
To start my     day
   D                  C9    G/B      G
I lost myself in a familiar     song
    D
I closed my eyes
        C9         G/B
And I slipped away


Passagem:

(Riff – Guitarras 1 e 2)

#6t1##6t2#E|-----------------------------------------------------|
B|-13~---12~-12b13r12-10~---12b13r12-10h12-10--8-------|
G|-----------------------------------------------------|
D|-----------------------------------------------------|
A|-----------------------------------------------------|
E|-----------------------------------------------------|#/6t2##/6t1#


Refrão:

#7t1#      G5        C5       E5               D5
#7t2#E|------------------------------------------|
B|------------------------------------------|
G|--------------------9--x-x-9--9--x-x-7-7\5|
D|-5--5--5/-10-10-x-x-9--x-x-9--9--x-x-7-7\5|
A|-5--5--5/-10-10-x-x-7--x-x-7--7--x-x-5-5\3|
E|-3--3--3/--8--8-x-x-----------------------|
   ↓  ↓  ↑   ↓  ↓ ↓ ↑ ↓  ↓ ↑ ↓  ↓  ↓ ↑ ↓ ↓#/7t2##/7t1#

#8t1#      G5        C5       E5               D5
#8t2#E|------------------------------------------|
B|------------------------------------------|
G|--------------------9--x-x-9--9--x-x-7-7\-|
D|-5--5--5/-10-10-x-x-9--x-x-9--9--x-x-7-7\-|
A|-5--5--5/-10-10-x-x-7--x-x-7--7--x-x-5-5\-|
E|-3--3--3/--8--8-x-x-----------------------|
   ↓  ↓  ↑   ↓  ↓ ↓ ↑ ↓  ↓ ↑ ↓  ↓  ↓ ↑ ↓ ↓#/8t2##/8t1#

      G5             C5  E5  D5
It's more than a feeling
        G5                C5
When I hear that old song
           E5     D5
They used to play
    G5           C5  E5  D5
And I begin dreaming
         G5           C5    D#5
'till I see Marianne walk away


Ponte:

Em7           A                 G
    I see my Marianne walkin' away

( G  D/F#  Em7  D9 )


Interlúdio: D  C9  G/B  G

(Violão)

#9t1#      D               C9    G/B   G
#9t2#E|-------------------3-----3----------------|
B|---3---3-3---3-------3-----3---3----------|
G|-----2---------0--------------------------|
D|-0---------0------------------------------|
A|-----------------3-----2------------------|
E|-----------------------------3------------|#/9t2##/9t1#

(Guitarra)

#10t1#   H.N  .   .   .
#10t2#E|-----------------------------------------------------|
B|--------------7--------------------------------------|
G|-12-------5---7--------------------------------------|
D|------5----------------------------------------------|
A|------5----------------------------------------------|
E|-----------------------------------------------------|#/10t2##/10t1#


Segunda Parte:

 D
So many people
      C9           G/B  G
Have come and gone
       D
Their faces fade
        C9       G/B  G
As the years go by
    D
Yet I still recall
   C9       G/B  G
As I wander on
     D
As clear as the sun
     C9           G/B
In the summer sky


Passagem:

(Riff – Guitarra 1)

#11t1##11t2#E|-----------------------------------------------------|
B|-13~---12~-12b13r12-10~---12b13r12-10h12-10--8-------|
G|-----------------------------------------------------|
D|-----------------------------------------------------|
A|-----------------------------------------------------|
E|-----------------------------------------------------|#/11t2##/11t1#

(Riff – Guitarra 2)

#12t1##12t2#E|-----------------------------------------------------|
B|-8h10~---8~-8h10p8-7~---8h10p8-7h8p7-8~--------------|
G|-----------------------------------------------------|
D|-----------------------------------------------------|
A|-----------------------------------------------------|
E|-----------------------------------------------------|#/12t2##/12t1#


Refrão:

( G5  C5  E5  D5 )

      G5             C5  E5  D5
It's more than a feeling
        G5                C5
When I hear that old song
           E5     D5
They used to play
    G5           C5  E5  D5
And I begin dreaming
         G5           C5    D#5
'till I see Marianne walk away


Ponte:

Em7           A
    I see my Marianne
          B5  A5  G5  D/F#  A4  A
Walkin' away


Solo: D5  G5  D/F#  A
      D5  G5  D/F#  A
      D5  G5  B5  A
      D5  B5  E5  A
      G5  ( G5  D/F#  E5  D5 )

(Guitarra 1)

#13t1##13t2#E|-----------------------------------------------------|
B|----------7--7h8--7h8p7-5---8b10~-----8--7--5h7p7----|
G|-6--7--9------------------7---------7-------------7--|
D|-----------------------------------------------------|
A|-----------------------------------------------------|
E|-----------------------------------------------------|#/13t2##/13t1#

#14t1##14t2#E|-----------------------------------------------------|
B|-5h7~-----8--7h8p7-----------------------------------|
G|--------7----------9-7-9b11r9--7-6~------------------|
D|-----------------------------------------------------|
A|-----------------------------------------------------|
E|-----------------------------------------------------|#/14t2##/14t1#

#15t1##15t2#E|-----------------------------------------------------|
B|-----8-7~--7h8--7h8p7-----10b12~---10--8--7h8p7----7~|
G|----------------------9-7-----------------------9----|
D|-7~--------------------------------------------------|
A|-----------------------------------------------------|
E|-----------------------------------------------------|#/15t2##/15t1#

#16t1##16t2#E|-----------------------------------------------------|
B|---8--7--5h7p5---5~----------------------------------|
G|-7-------------7------7/11--9h11p9-7--6--7~----------|
D|-----------------------------------------------------|
A|-----------------------------------------------------|
E|-----------------------------------------------------|#/16t2##/16t1#

#17t1##17t2#E|-----------------------------------------------------|
B|-14h15p14\12-----------------------------------------|
G|-------------14b16~----------------------------------|
D|-----------------------------------------------------|
A|-----------------------------------------------------|
E|-----------------------------------------------------|#/17t2##/17t1#

(Guitarra 2)

#18t1##18t2#E|-----------------------------------------------------|
B|-10/12--10h12p10-8-7-8b10r8-7-5~\3-------------------|
G|-----------------------------------------------------|
D|-----------------------------------------------------|
A|-----------------------------------------------------|
E|-----------------------------------------------------|#/18t2##/18t1#

#19t1##19t2#E|-----------------------------------------------------|
B|-12--10~---10h12--10h12p10-8-7-14b15~----------------|
G|-----------------------------------------------------|
D|-----------------------------------------------------|
A|-----------------------------------------------------|
E|-----------------------------------------------------|#/19t2##/19t1#

#20t1##20t2#E|-----------------------------------------------------|
B|-14--12--10h12p10-8-10~------------------------------|
G|-----------------------------------------------------|
D|-----------------------------------------------------|
A|-----------------------------------------------------|
E|-----------------------------------------------------|#/20t2##/20t1#

#21t1##21t2#E|-----------------------------------------------------|
B|-8/10--8h10p8-7-5------------------------------------|
G|------------------7~---------------------------------|
D|-----------------------------------------------------|
A|-----------------------------------------------------|
E|-----------------------------------------------------|#/21t2##/21t1#

#22t1##22t2#E|-----------------------------------------------------|
B|-10h12p10\8--7b8~------------------------------------|
G|-----------------------------------------------------|
D|-----------------------------------------------------|
A|-----------------------------------------------------|
E|-----------------------------------------------------|#/22t2##/22t1#

( D  C9  G/B  G )


Terceira Parte:

  D
When I'm tired
         C9       G/B  G
And thinking cold
   D
I hide in my music
    C9      G/B  G
Forget the day
      D
And dream of a girl
  C9           G/B  G
I used to know
    D
I closed my eyes
          C9      G/B  C9
And she slipped away

( D  C9  G/B  C9  D  C9 )

      G/B   C9   D  C9  G/B  C9
She slipped    away

( D  C9  G/B )


Passagem: A5  G5  D5

(Riff – Guitarra 1)

#23t1##23t2#E|-----------------------------------------------------|
B|-13~---12~-12b13r12-10~-10h12p10--12b13r12-10h12-10-8|
G|-----------------------------------------------------|
D|-----------------------------------------------------|
A|-----------------------------------------------------|
E|-----------------------------------------------------|#/23t2##/23t1#

(Riff – Guitarra 2)

#24t1##24t2#E|-----------------------------------------------------|
B|-8h10~---8~-8h10p8-7~--7h8p7--8h10p8-7h8p7-8~--------|
G|-----------------------------------------------------|
D|-----------------------------------------------------|
A|-----------------------------------------------------|
E|-----------------------------------------------------|#/24t2##/24t1#


Refrão:

G5  C5  E5  D5
G5  C5  E5  D5

      G5             C5  E5  D5
It's more than a feeling
        G5                C5
When I hear that old song
           E5     D5
They used to play
    G5           C5  E5  D5
And I begin dreaming
         G5           C5    E5  D5
'till I see Marianne walk away


Final:

#25t1#      G5        C5
#25t2#E|------------------------------------------|
B|------------------------------------------|
G|------------------------------------------|
D|-5--5--5/-10-10---------------------------|
A|-5--5--5/-10-10---------------------------|
E|-3--3--3/--8--8---------------------------|
   ↓  ↓  ↑   ↓  ↓#/25t2##/25t1#

#26t1#          E5               D5
#26t2#E|------------------------------------------|
B|------------------------------------------|
G|-----9--x-x-9--9--x-x-7--x-x-7------------|
D|-x-x-9--x-x-9--9--x-x-7--x-x-7------------|
A|-x-x-7--x-x-7--7--x-x-5--x-x-5------------|
E|-x-x--------------------------------------|
   ↓ ↑ ↓  ↓ ↑ ↓  ↓  ↓ ↑ ↓  ↓ ↑ ↓#/26t2##/26t1#

#27t1#      G5        C5
#27t2#E|------------------------------------------|
B|------------------------------------------|
G|------------------------------------------|
D|-5--5--5/-10-10---------------------------|
A|-5--5--5/-10-10---------------------------|
E|-3--3--3/--8--8---------------------------|
   ↓  ↓  ↑   ↓  ↓#/27t2##/27t1#

#28t1#          E5               D5
#28t2#E|------------------------------------------|
B|------------------------------------------|
G|-----9--x-x-9--9--x-x-7-7\5---------------|
D|-x-x-9--x-x-9--9--x-x-7-7\5---------------|
A|-x-x-7--x-x-7--7--x-x-5-5\3---------------|
E|-x-x--------------------------------------|
   ↓ ↑ ↓  ↓ ↑ ↓  ↓  ↓ ↑ ↓ ↓#/28t2##/28t1#

#29t1#      G5        C5
#29t2#E|------------------------------------------|
B|------------------------------------------|
G|------------------------------------------|
D|-5--5--5/-10-10---------------------------|
A|-5--5--5/-10-10---------------------------|
E|-3--3--3/--8--8---------------------------|
   ↓  ↓  ↑   ↓  ↓#/29t2##/29t1#

#30t1#          E5               D5
#30t2#E|------------------------------------------|
B|------------------------------------------|
G|-----9--x-x-9--9--x-x-7--x-x-5------------|
D|-x-x-9--x-x-9--9--x-x-7--x-x-5------------|
A|-x-x-7--x-x-7--7--x-x-5--x-x-3------------|
E|-x-x--------------------------------------|
   ↓ ↑ ↓  ↓ ↑ ↓  ↓  ↓ ↑ ↓  ↓ ↑ ↓#/30t2##/30t1#

#31t1#      G5        C5
#31t2#E|------------------------------------------|
B|------------------------------------------|
G|------------------------------------------|
D|-5--5--5/-10-10---------------------------|
A|-5--5--5/-10-10---------------------------|
E|-3--3--3/--8--8---------------------------|
   ↓  ↓  ↑   ↓  ↓#/31t2##/31t1#

#32t1#          E5               D5
#32t2#E|------------------------------------------|
B|------------------------------------------|
G|-----9--x-x-9--9--x-x-7-7\----------------|
D|-x-x-9--x-x-9--9--x-x-7-7\----------------|
A|-x-x-7--x-x-7--7--x-x-5-5\----------------|
E|-x-x--------------------------------------|
   ↓ ↑ ↓  ↓ ↑ ↓  ↓  ↓ ↑ ↓ ↓#/32t2##/32t1#
Composição: T. Scholz / Tom ScholzColaboração e revisão: Vinícius DiasElvis CamiloRodrigo SilvaJosé Silvae mais 3
Videoaula More Than a Feeling (aula de guitarra)