busca

Agarrada Em Mim

Bruno e Marrone

Tom: A#
Introdução: Bb Dm Eb F Bb F

E|------------------------------------------------------------------------|
B|--------------------------------------------------------------8---------|
G|--8/10--7-10-10/12-10-8-7-10~--7-10-10/12-10-8-7-8--7------10---7-------|
D|------------------------------------------------------10-8--------10----|
A|------------------------------------------------------------------------|
E|------------------------------------------------------------------------|

E|---------------------------8~-------------------------------------------|
B|------------------------10----------------------------------------------|
G|---------------------10-------------------------------------------------|
D|---8-10-8~--8-7---10----------------------------------------------------|
A|----------------8-------------------------------------------------------|
E|------------------------------------------------------------------------|

   Bb
Enquanto a cidade dorme 
               Eb
e eu aqui me lembro
                          
         F           Bb    F 
Quanto tempo,quanto tempo
    Bb
A gente já não fica junto
              Eb
mais nenhum momento
                           
         F           Bb   Bb7  
Quanto tempo,quanto tempo
    Eb                  F
Eu sei que foi só uma transa
           Dm                Gm 
Mas sua lembrança me deixou assim
   Eb                 F
Querendo ter você de novo,
                 
   Bb          Bb7
agarrada em mim
    Eb                  F
Desculpe se eu senti saudade,
             Bb                 Gm
Se me deu vontade,eu não sei fingir
                              
      Eb          F           Bb  F         
Faz tempo,mas eu nunca te esqueci
  Bb                        Dm
Vem,quero amar seu corpo inteiro
                    Eb
Namorar,sentir seu cheiro
                       
        Cm           F
Sem ter pressa de acabar
 Bb                      Dm 
Vem,que eu estou aqui sozinho
                Bb
Precisando de carinho
             
       F            Bb  F
Com vontade de te amar

E|------------------------------------------------------------------------|
B|--------------------------------------------------------------8---------|
G|--8/10--7-10-10/12-10-8-7-10~--7-10-10/12-10-8-7-8--7------10---7-------|
D|------------------------------------------------------10-8--------10----|
A|------------------------------------------------------------------------|
E|------------------------------------------------------------------------|

E|------------6-5-3h5p3---------------------------------------------------|
B|----------------------6-3h6p3-------------------------------------------|
G|-------------------------------5-3~-------------------------------------|
D|---8-10-8~---------------------------1-3-3/5~---------------------------|
A|------------------------------------------------------------------------|
E|------------------------------------------------------------------------|

    Eb                  F
Eu sei que foi só uma transa
           Dm                Gm 
Mas sua lembrança me deixou assim
   Eb                 F
Querendo ter você de novo ,
               
   Bb          Bb7
agarrada em mim
    Eb                  F
Desculpe se eu senti saudade,
             Bb                 Gm
Se me deu vontade,eu não sei fingir
                     
      Eb          F           Bb  F         
Faz tempo,mas eu nunca te esqueci
  Bb                        Dm
Vem,quero amar seu corpo inteiro
                    Eb
Namorar,sentir seu cheiro
                      
        Cm           F
Sem ter pressa de acabar
 Bb                      Dm 
Vem,que eu estou aqui sozinho
                Bb
Precisando de carinho
                     
      F            Bb  F
Com vontade de te amar
  Bb                        Dm
Vem,quero amar seu corpo inteiro
                    Eb
Namorar,sentir seu cheiro
         Cm           F
Sem ter pressa de acabar
 Bb                      Dm 
Vem,que eu estou aqui sozinho
                Bb
Precisando de carinho
      F            Bb  F
Com vontade de te amar

Clipes