busca

Choram As Rosas

Bruno e Marrone

eh bem facil essa musica
obs| essa cifra eh da versao ao vivo
intro
g-----------------------
d-----------------------
a-----5-------------3---
e-3---------0-----------

g--------------------------
d-------------------------
a-----5-------------3--5-3
e-3---------0-------------

lagrimas

g----------------------------------------------------
d----------------------------------------------------
a3-3--7--5-5---3-3-----55--3-3---7-5-5--3-3-3-3-33---
e-------------------3--------------------------------

refrao
g
d
a-------5-5-5/-7-7-7-7---3-3--3-------------5-5-5--3-3-3--3-3-3--
e3-3-3-------------------------------3--3-3-----------------------

g-------------
d-------------
a----------5--
e--3-5-6------

g------------------------------------------------------
d------------------------------------------------------
a-------2-2-2--3-3-3--3-----------5-5-55---3-3-3-33-3--
e-3-3-3------------------3-3-3-3-----------------------
depois do refrao
verso e base do solo
g----------------------------------------------
d-----------------------------------------------
a-------------55-5-5-5----3-3-3-3-3-33-3-3-3----
e-3-3-3-3--------------------------------------

Clipes