/ / / / É, aonde foi que eu me perdi / Aonde foi que a gente se perdeu / Pois é, tá bem " /> / / / / É, aonde foi que eu me perdi / Aonde foi que a gente se perdeu / Pois é, tá bem ">
busca

Eu Não Te Merecia (Menos Um Vagabundo)

Bruno e Marrone

Tom: D
    D  Em G
E|---------------------------------------------------------|
B|-7-7-7-7-7-7-7-7-5h7--5-5-3--3h5-----7-7-7-7-5-3---------|
G|-------------------------------------------------2h4-----|
D|---------------------------------------------------------|
A|---------------------------------------------------------|
E|---------------------------------------------------------|

     D     D4
E|---------------------------------------------------------|
B|-7-7-7-7-7-7-7-7-5h7--5-5-3--3---------------------------|
G|-----------------------------2---------------------------|
D|---------------------------------------------------------|
A|---------------------------------------------------------|
E|---------------------------------------------------------|

G
É, aonde foi que eu me perdi
                            D
Aonde foi que a gente se perdeu
    G
Pois é, tá bem mais frio do que era antes
                               D
E esse silêncio esta muito irritante

        Em
Aonde esta você?
          G                                            D
To com saudade de te ouvir gritar do quarto e fazendo drama
Deixei uma toalha molhada na cama

           Em
Aonde está você?
                                       G
Que não viu que eu cheguei já era madrugada
                                         D
Não me acostumei sem você para me cobrar nada
              A7    D
Sem me falar nada

                                Em
Tá pagando a conta agora é o coração
                             G
O idiota que não te deu atenção
                                     D
Ele deve esta fazendo mais do que eu fazia

                                   Em
Te amando três, quatro vezes por semana
                             G
É menos um vagabundo na sua cama
               D
É, eu não te merecia

[Solo]

   D  Em  G
E|---------------------------------------------------------|
B|-7-7-7-7-7-7-7-7-5h7--5-5-3--3h5-----7-7-7-7-5-3---------|
G|-------------------------------------------------2h4-----|
D|---------------------------------------------------------|
A|---------------------------------------------------------|
E|---------------------------------------------------------|

     Em
E|---------------------------------------------------------|
B|-7-7-7-7-7-7-7-7-5h7--5-5-3------------------------------|
G|---------------------------------------------------------|
D|---------------------------------------------------------|
A|---------------------------------------------------------|
E|---------------------------------------------------------|
                       
          G                                            D
To com saudade de te ouvir gritar do quarto e fazendo drama
Deixei uma toalha molhada na cama

           Em
Aonde está você?
                                        G
Que não viu que eu cheguei já era madrugada
                                         D
Não me acostumei sem você para me cobrar nada
              A7    D
Sem me falar nada

                                Em
Tá pagando a conta agora é o coração
                             G
O idiota que não te deu atenção
                                     D
Ele deve esta fazendo mais do que eu fazia

                                   Em
Te amando três, quatro vezes por semana
                             G
É menos um vagabundo na sua cama
               D
É, eu não te merecia

                                Em
Tá pagando a conta agora é o coração
                             G
O idiota que não te deu atenção
                                     D
Ele deve esta fazendo mais do que eu fazia

                                   Em
Te amando três, quatro vezes por semana
                             G
É menos um vagabundo na sua cama
               D
É, eu não te merecia

Clipes