E|----------------------------------------------------/B|-0-2-3-2-0-<" /> E|----------------------------------------------------/B|-0-2-3-2-0-<">
busca

Ficar Por Ficar

Bruno e Marrone

Tom: D
(intro) Bm  F#m  G  D  Bbm  Bm  F#m  Em  G  A

(solo)
E|----------------------------------------------------
B|-0-2-3-2-0-0------------------------------3p2---0-2-
G|-------------2-4-4-4/6--2-4-2-0-0-------------3-----
D|----------------------------------0-2-2/4-----------
A|----------------------------------------------------
E|----------------------------------------------------

E|-------------------------0--2-3-2-0-0--2-3-3/5--3p2-0-|
B|-0-2-3-2-0-0---------------------------3-5-5/7--------|
G|-------------2-4-4-4/6--------------------------------|
D|------------------------------------------------------|
A|------------------------------------------------------|
E|------------------------------------------------------|

  A               D
Eu não quero só ficar
                   A
Quero mais que aventura
               G                  A A/C#
Dividir com você uma história de amor
                   D
Mais você não se importa
              A
Com a minha paixão
            Em      G       A  Bbº
Não leva a sério o meu coração

 Bm                  F#m
Será que você não percebe
 G                 D    F#
Que eu estou apaixonado
 Bm                      F#m
Será que não vê nos meus beijos
       G                 A
Que eu quero você do meu lado

(refrão 2x)
  D                    A
Ficar por ficar eu não quero
   Em         G          D   A
Beijar por beijar eu tô fora
  D               A
Menina vê se leva à sério
  Em    G          D       F#7
Vê se não pisa na bola.

A|-0-2-4~-|

  (solo) Bm  F#m  G  D F#7  Bm  F#m  Em G A
E|-----------------------------------------------------
B|-0-2-3-2-0-0------------------------------3p2---0-2--
G|-------------2-4-4-4/6--2-4-2-0-0-------------3------
D|----------------------------------0-2-2/4------------
A|-----------------------------------------------------
E|-----------------------------------------------------

E|---------------------------------7-7--5-5-5-5-5-|
B|-0-2-3-2-0-0------------7-8------8-7--5-5-5-5-5-|
G|-------------2-4-4-4/6------9-7--9-7------------|
D|------------------------------------------------|
A|------------------------------------------------|
E|------------------------------------------------|

 Bm                  F#m
Será que você não percebe
 G                 D    F#
Que eu estou apaixonado
 Bm                      F#m
Será que não vê nos meus beijos
       G                 A
Que eu quero você do meu lado

(refrão 2x)

Clipes