Ficar Por Ficar

Bruno e Marrone

A
123
X02220
A/C#
1234
X4X255
Bbm
234
X13321
Bbº
123
X12020
Bm
234
X24432
D
123
XX0232
Em
12
022000
F#
234
244322
F#7
34
242322
F#m
34
244222
G
123
320003
Tom: G
(intro) Bm  F#m  G  D  Bbm  Bm  F#m  Em  G  A

#1t1#(solo)
#1t2#E|----------------------------------------------------
B|-0-2-3-2-0-0------------------------------3p2---0-2-
G|-------------2-4-4-4/6--2-4-2-0-0-------------3-----
D|----------------------------------0-2-2/4-----------
A|----------------------------------------------------
E|----------------------------------------------------#/1t2##/1t1#

#2t1##2t2#E|-------------------------0--2-3-2-0-0--2-3-3/5--3p2-0-|
B|-0-2-3-2-0-0---------------------------3-5-5/7--------|
G|-------------2-4-4-4/6--------------------------------|
D|------------------------------------------------------|
A|------------------------------------------------------|
E|------------------------------------------------------|#/2t2##/2t1#

  A               D
Eu não quero só ficar
                   A
Quero mais que aventura
               G                  A A/C#
Dividir com você uma história de amor
                   D
Mais você não se importa
              A
Com a minha paixão
            Em      G       A  Bbº
Não leva a sério o meu coração

 Bm                  F#m
Será que você não percebe
 G                 D    F#
Que eu estou apaixonado
 Bm                      F#m
Será que não vê nos meus beijos
       G                 A
Que eu quero você do meu lado

(refrão 2x)
  D                    A
Ficar por ficar eu não quero
   Em         G          D   A
Beijar por beijar eu tô fora
  D               A
Menina vê se leva à sério
  Em    G          D       F#7
Vê se não pisa na bola.

#3t1##3t2#A|-0-2-4~-|#/3t2##/3t1#

#4t1#  (solo) Bm  F#m  G  D F#7  Bm  F#m  Em G A
#4t2#E|-----------------------------------------------------
B|-0-2-3-2-0-0------------------------------3p2---0-2--
G|-------------2-4-4-4/6--2-4-2-0-0-------------3------
D|----------------------------------0-2-2/4------------
A|-----------------------------------------------------
E|-----------------------------------------------------#/4t2##/4t1#

#5t1##5t2#E|---------------------------------7-7--5-5-5-5-5-|
B|-0-2-3-2-0-0------------7-8------8-7--5-5-5-5-5-|
G|-------------2-4-4-4/6------9-7--9-7------------|
D|------------------------------------------------|
A|------------------------------------------------|
E|------------------------------------------------|#/5t2##/5t1#

 Bm                  F#m
Será que você não percebe
 G                 D    F#
Que eu estou apaixonado
 Bm                      F#m
Será que não vê nos meus beijos
       G                 A
Que eu quero você do meu lado

(refrão 2x)
Composição: Everton Matos / Jairo Goes / RivanilColaboração e revisão: Alex FranciscoFelipe SouzaCarlos MarianoMarcel Oliveirae mais 4