busca

Ficar Por Ficar

Bruno e Marrone

Tom: D
Intro: Bm  F#m  G  D F#7  Bm  F#m  Em G A

Solo:
E|----------------------------------------------------|
B|-0-2-3-2-0-0------------------------------3p2---0-2-|
G|-------------2-4-4-4/6--2-4-2-0-0-------------3-----|
D|----------------------------------0-2-2/4-----------|
A|----------------------------------------------------|
E|----------------------------------------------------|

E|----------------------------------2-3-3/5--3p2-0-|
B|-0-2-3-2-0-0----------------------3-5-5/7--------|
G|-------------2-4-4-4/6--2-4-2-0-0----------------|
D|-------------------------------------------------|
A|-------------------------------------------------|
E|-------------------------------------------------|

                  D
Eu não quero só ficar 
                   A
Quero mais que aventura
              G                   A
Dividir com você uma história de amor
                   D
Mais você não se importa
               A
Com a minha paixão
            Em      G       A  A#º
Não leva a sério o meu coração

  Bm                  F#m
Será que você não percebe
    G              D    F#7
Que eu estou apaixonado
  Bm                      F#m
Será que não vê nos meus beijos
       G                 A
Que eu quero você do meu lado

  D                    A
Ficar por ficar eu não quero
   Em         G          D    A
Beijar por beijar eu tô fora
  D                 A
Menina vê se leva à sério
 Em        G      D     A         *Guitarra: A|-0-2-4~-|
Vê se não pisa na bola

  D                    A
Ficar por ficar eu não quero
   Em         G          D    A
Beijar por beijar eu tô fora
  D                 A
Menina vê se leva à sério
 Em        G      D     F#7
Vê se não pisa na bola

Solo: Bm  F#m  G  D F#7  Bm  F#m  Em G A
E|----------------------------------------------------|
B|-0-2-3-2-0-0------------------------------3p2---0-2-|
G|-------------2-4-4-4/6--2-4-2-0-0-------------3-----|
D|----------------------------------0-2-2/4-----------|
A|----------------------------------------------------|
E|----------------------------------------------------|

E|---------------------------------7-7--5-5-5-5-5-|
B|-0-2-3-2-0-0------------7-8------8-7--5-5-5-5-5-|
G|-------------2-4-4-4/6------9-7--9-7------------|
D|------------------------------------------------|
A|------------------------------------------------|
E|------------------------------------------------|

Obs: No final da música, no 2º refrão, não tem a nota F#7... Segura em D

Clipes

Cifra Club Pro

Aproveite o Cifra Club com benefícios exclusivos e sem anúncios
Cifra Club Pro
Aproveite o Cifra Club com benefícios exclusivos e sem anúncios