busca

Flores

Bruno e Marrone

Tom: Bb
Intro:

       Bb     F    Gm                  Eb
E|--------------|--------------------------------|
B|--------------|--------------------------------|
G|--5h7-10\5-5--|-3-2h3p2---3-2h3p2---3-2h3p2----|
D|--------------|---------3---------3---------3--|
A|--------------|--------------------------------|
E|--------------|--------------------------------|

          Bb     F    Gm                  Eb
E|-----------------|--------------------------------|
B|-----------------|--------------------------------|
G|---5-5h7-10\5-5--|-3-2h3p2---3-2h3p2---3-2h3p2----|
D|-----------------|---------3---------3---------3--|
A|-----------------|--------------------------------|
E|-----------------|--------------------------------|

Bb         F/A Gm         Eb
Se você chorar, te faço sorrir
Bb       F/A   Gm        Eb
Se você fugir, te faço voltar pra mim
Bb            F/A  Gm        Eb
Se finge não ver, te faço enxergar
Bb         F/A  Gm            Eb
E se for dormir, eu vou te acordar

Bb               F/A          Gm            Eb
Com flores e as cores que combinam com a paixão
Bb              F/A        Gm            Eb
E um verso rabiscado, eu te amo num cartão (2x)

(Repete Intro)

Bb         F/A Gm         Eb
Se você chorar, te faço sorrir
Bb       F/A   Gm        Eb
Se você fugir, te faço voltar pra mim
Bb            F/A  Gm        Eb
Se finge não ver, te faço enxergar
Bb         F/A  Gm            Eb
E se for dormir, eu vou te acordar

Bb               F/A          Gm            Eb
Com flores e as cores que combinam com a paixão
Bb              F/A        Gm            Eb
E um verso rabiscado, eu te amo num cartão (2x)

Cm7               F/A   Bb                Eb
Não precisa ter medo, eu vou te fazer acreditar
Cm
No meu amor (no meu amor)
Eb
No nosso amor (no nosso amor)
F/A
Você sempre vai lembrar

Bb               F/A          Gm            Eb
Das flores e as cores que combinam com a paixão
Bb               F/A          Gm            Eb
E um verso rabiscado, eu te amo num cartão (2x)

Solo final (desacelerando):

    Eb                         Bb
E|--------------------------|-1-|
B|--------------------------|-3-|
G|-3-2---3-2---3-2---3-2----|-3-|
D|-----3-----3-----3-----3--|-3-|
A|--------------------------|-1-|
E|--------------------------|-x-|

Clipes

Cifra Club Pro

Aproveite o Cifra Club com benefícios exclusivos e sem anúncios
Cifra Club Pro
Aproveite o Cifra Club com benefícios exclusivos e sem anúncios