busca

Fogo Molhado

Bruno e Marrone

Tom: Eb (forma dos acordes no tom de D) Capotraste na 1ª casa
[Intro] D  A  Em  G  Gm

[Solo Introdução]

   D         
E|----------------------------|
B|-3-3-3-5-5/6-3-3-3-5-5/6----|
G|----------------------------|
D|----------------------------|
A|----------------------------|
E|----------------------------|

   A      
E|----------------------------|
B|----------------------------|
G|-6-7-7/9-6-7-7/9------------|
D|-7-------7------------------|
A|----------------------------|
E|----------------------------|

   Em
E|----------------------------|
B|----------------------------|
G|-9-9-9-9/12-12-12-12-9-7-9-7|
D|----------------------------|
A|----------------------------|
E|----------------------------|

          G
E|----------------------------|
B|----------------------------|
G|-7-9-9/12-12-12-9-7---------|
D|----------------------------|
A|----------------------------|
E|----------------------------|

      Gm
E|-3-5-6-5-3------------------|
B|-----------3----------------|
G|----------------------------|
D|----------------------------|
A|----------------------------|
E|----------------------------|

[Primeira Parte]

    D
Eu amo esse batom na sua boca
              Bm             A
Mas hoje ele vai ficar borrado
   D
Fez o cabelo hoje mais cedo
                  Bm
Só que agora ele vai ficar bagunçado

              Em               G
E esse vestido caiu bem em você
                   D                A
Só que vai ficar melhor caído no chão
                     Em                 G
Deixa o quarto à meia-luz e desliga a TV
                 Gm                   A
Que hoje nosso filme vai ser no colchão

[Refrão]

      D                                         A
E eu vou beijando seu pescoço porque sei que arrepia
                                       Em
Vou descendo minha boca na parte que vicia
                               G
E isso acende esse seu fogo molhado
             Gm                           D
Por isso o resto vai ter que ser censurado

      D                                         A
E eu vou beijando seu pescoço porque sei que arrepia
                                       Em
Vou descendo minha boca na parte que vicia
                               G
E isso acende esse seu fogo molhado
             Gm                           D
Por isso o resto vai ter que ser censurado

Clipes

Cifra Club Pro

Aproveite o Cifra Club com benefícios exclusivos e sem anúncios
Cifra Club Pro
Aproveite o Cifra Club com benefícios exclusivos e sem anúncios