/ / / / Parei, suspirei, tô em choque/Não dá p" /> / / / / Parei, suspirei, tô em choque/Não dá p">
busca

Foi Só Um Susto

Bruno e Marrone

Tom: C
[Intro]  C  G  Dm  F  G

[Solo Intro]

E|------------------------------------------------------|
B|--1-1-1/3-3--3-1-1-1/3-3--3/5-5-5-5-3-3-3-3/5/3-------|
G|--------------------------4/5-5-5-5-4-4-4-4/5/4-------|
D|------------------------------------------------------|
A|------------------------------------------------------|
E|------------------------------------------------------|

E|---------------------------------3--------------------|
B|--8/6-5-3-3/6--1-1-1-1-1/3-3-----3--------------------|
G|---------------2-2-2-2-2/4-0-----0--------------------|
D|-----------------------------0-0-0--------------------|
A|---------------------------------2--------------------|
E|---------------------------------3--------------------|

   F
Parei, suspirei, tô em choque
Não dá pra entender como pode
  Am
O que me jurou, pôs tudo a perder
   F
Mentiu que ia ficar em casa
Por essa eu não esperava
    Am
Meu mundo parou, não, não pode ser

F                        G
O mesmo perfume, o mesmo corte de cabelo
        Am
E ele tocando no seu rosto

E|----------------------------|
B|--3/5-3-1-0-----------------|
G|--4/5-4---------------------|
D|--------2-0-----------------|
A|----------------------------|
E|----------------------------|

A ponto de te dar um beijo
 F                   G
E eu, eu já desconfiava

          C
Quebrei a mesa, passei vergonha
          G
Levei um soco, tô com olho roxo
              Dm
Mas se quer saber
             F             G
Tô feliz porque não era você
          C
Quebrei a mesa, passei vergonha
          G
Levei um soco, tô com olho roxo
            Dm
Como fui injusto
    F          G    C
Graças a Deus foi só um susto

[Solo]  C  G  Dm  F  G

E|------------------------------------------------------|
B|--1-1-1/3-3--3-1-1-1/3-3--3/5-5-5-5-3-3-3-3/5/3-------|
G|--------------------------4/5-5-5-5-4-4-4-4/5/4-------|
D|------------------------------------------------------|
A|------------------------------------------------------|
E|------------------------------------------------------|

E|---------------------------------3--------------------|
B|--8/6-5-3-3/6--1-1-1-1-1/3-3-----3--------------------|
G|---------------2-2-2-2-2/4-0-----0--------------------|
D|-----------------------------0-0-0--------------------|
A|---------------------------------2--------------------|
E|---------------------------------3--------------------|

F                        G
O mesmo perfume, o mesmo corte de cabelo
        Am
E ele tocando no seu rosto
A ponto de te dar um beijo
 F                   G
E eu, eu já desconfiava

          C
Quebrei a mesa, passei vergonha
          G
Levei um soco, tô com olho roxo
              Dm
Mas se quer saber
             F             G
Tô feliz porque não era você
          C
Quebrei a mesa, passei vergonha
          G
Levei um soco, tô com olho roxo
            Dm
Como fui injusto
    F          G    C
Graças a Deus foi só um susto

          C
Quebrei a mesa, passei vergonha
          G
Levei um soco, tô com olho roxo

E|----------------------------|
B|--8/6-5---------------------|
G|--------7-7/10--------------|
D|----------------------------|
A|----------------------------|
E|----------------------------|

              Dm
Mas se quer saber
             F             G
Tô feliz porque não era você
          C
Quebrei a mesa, passei vergonha
          G
Levei um soco, tô com olho roxo
            Dm
Como fui injusto
    F          G    C
Graças a Deus foi só um susto

[Final]  Dm  C
             
E|----------------------------|
B|--3/5-5-5/6-6-5-------------|
G|--4/5-5-5/7-7-5-------------|
D|----------------------------|
A|----------------------------|
E|----------------------------|

Clipes